Eowyn - Unfinished Memories tab

Eowyn
Unfinished Memories

Chords and Tabs by: Eve
e|1---1----1----0---0---0---0-----1---1---1----0-----0-1-0-------------| 
B|-3-3--3-3-3----1-1-1-1-1-1-1------------------1-1-1-----1------------|
G|---------------------------------3-3-3-3-3---------------------------|
D|0--------------------------------------------------------------------|
A|--------------3-----------------1------------3-----------------------|
E|---------------------------------------------------------------------| 

e|1---1----1----0---0---0---0-----1---1---1----0-----0-1-0-------------| 
B|-3-3--3-3-3----1-1-1-1-1-1-1------------------1-1-1-----1/8----------|
G|---------------------------------3-3-3-3-3---------------------------|
D|0--------------------------------------------------------------------|
A|--------------3-----------------1------------3-----------------------|
E|---------------------------------------------------------------------| 

Verse 1:
Dm                C  F  Bb
I saw you yesterday
Dm                          C        F    Bb
I didn't know that it would be the last time
Dm             C
You said my name
Dm           C
You walked away

Dm        C              Bb           C
A Moments lost but never once forgotten

CHORUS:
Dm      Bb F            C         Dm
But one day I'll see you face to face
Dm        Bb F           C         Dm 
Then we'll say things we meant to say
Dm        Bb F           C         Dm         
It's too late for now but not always
Dm          Bb                  C                 Bb        Dm
We'll meet again and then we'll start from these unfinished memories

Verse 2:
Dm                C  F  Bb
I cannot change that day

Dm                C  F  Bb
Go back erase what happened
Dm         C
Ease the pain
Dm               C
There's none to blame
Bb               C            F         Bb          Dm   C
No steps to take and even though we may not understand


Chorus Chords:
Dm      Bb F            C         Dm
Dm      Bb F            C         Dm
Dm      Bb F            C         Dm
Dm          Bb                  C                 Bb        Dm
------------------------------
End.
Enjoy!
I really love this song :) 
Tap to rate this tab
 
# A B C D E F G H I J K L M N O P Q R S T U V W X Y Z