Song name
# A B C D E F G H I J K L M N O P Q R S T U V W X Y Z

Ephel Duath - Crystalline Whirl tab

I was bored on a sick day so I figured out the first few parts.
You'll have to listen to the song for the rhythm.
I don't think this song in standard tuning but this is the way I figured
out how to play it so the fingering might be a little tricky.
If you can add to it/correct it/improve it in anyway let me know.
This is my first time tabbing something, I hope it's not too bad.
That should be about it. Enjoy.

Riff 1                           Riff 2
e[------------------------------]-------------------------------------------|
b[-----7----------7-7-----------]-------------------------------------------|
g[---5----5-----5-----5----5----]------8----------8----------8----------8---|
D[------------------------------]---12---12----12---12----12---12----12-----|
A[-3--------------------------6-]-------------------------------------------|
E[-----------4-----------5------]-8----------10---------11---------7--------|
                  b
Fun part                      Riff 3
e[---------------------------]----------------------------------------------|
b[---------------------------]----------------------------------------------|
g[---------------------------]------12--------------------------------------|
D[---------9----11--14----15-]---10----10----------------12----10h11--------|
A[-9----11---12--------13----]-----------------11h12---11-------------------|
E[---10----------------------]-8-----------11--------10------9--------------|
                                     b
e[-------------------------]------------------------------------------------|
b[-------------------------]------------------------------------------------|
g[--------13------------12-]------------------------------------------------|
D[----10------10------9----]------------------------------------------------|
A[-------------------------]------------------------------------------------|
E[-8---------------10------]------------------------------------------------|

If you can add to this that would be great.
I'll try to add more when I can but the rest of the song I think is beyond
my ability to tab.
Tap to rate this tab
# A B C D E F G H I J K L M N O P Q R S T U V W X Y Z