Guitaretab - guitar tabs
Song name
# A B C D E F G H I J K L M N O P Q R S T U V W X Y Z

Epica - Chasing The Drangon tab

EPICA Ė CHASING THE DRAGON
ALBUM Ė DIVINE CONSPIRACY

Tabbed by valaorn GR
Guys, as in the most epica songs, there is not enough guitar to tab . Have fan!
  
Standard tuning


Acoustic guitar (Intro and the first part) :
--------------------------------/
---------1-----------1-1---1--1-/
-----2-----2---2---------2------/
---2---2-----2-----2------------/
-0---------------0--------------/
--------------------------------/
Free my mind              Heal my scars
Dark days to forget      And memories to last
----------------------------------/
---------3-----------------1------/
-----0-----0---0-------0-----2---2/
---2---2-----2-------0---0-----2--/
-3---------------0h2--------------/
----------------------------------/
Erase the past
In my heart

Free me now

(play the same riff now):
Make me forget
And forgive
There's no use
To go on and live
Show me a way
To the sun

Heal my scars
[ Tab from: http://www.guitaretab.com/e/epica/106626.html ]
Chorus:
Am        A        Dm      F
Nothing will be forever gone
Memories will stay and find their way
What goes around will come around
Donít deny your fears
So let them go and fade into light
Give up the fight here

(Again the fist riff in acoustic):
Let my eyes take in
The beauty that's here
Thatís left on this earth
My ears long to hear
A melody

Give me sight

 [Chorus]

[ELECTRIC]:
----------------------------------------/
----------------------------------------/
----------------------------------------/
5---------5-----5-5-5-5-------7-----5---/
5---------5-----5-5-5-5-------7---------/
3---------3-----3-3-3-3-------5---------/
[PM]            . . .               ~
Poison is slowly      seeping through my veins
Stealing the only     dignity in me

-----------------------------------
-----------------------------------
-----------------------------------
3-3-3-3-333--3--333-555-666--------
5-5-5-5-555--5--555-777-888--------
5-5-5-5-555--5--555-777-888--------
I pick them up and let them fall...
 

THE SONG CONTINUES WITH NO MORE GUITAR.
I DONíT THINK ITíS 100% CORRECT. SO IF THERE ARE SUGGESTIONS JUST MAIL ME>

Related for Chasing The Drangon tab