Guitaretab - guitar tabs
Song name
# A B C D E F G H I J K L M N O P Q R S T U V W X Y Z

Epica - Chasing The Dragon tab

Okay, the first version was wrong in some parts so here's my tab:

Intro:
e|-----------------------------------|
B|---------0---------------0---------|
G|-----2-----2---2-----0-----0---0---|
D|---2---2-----2-----2---2-----2-----|
A|-0---------------0-----------------|
E|-----------------------------------|

-------------------------------------|
---------3-----------------3---------|
-----0-----0---0-------0-----0---0---|
---2---2-----2-------4---4-----5-----|
-3-----------------5-----------------|
-------------------------------------|
                  |________________|

Repeat but instead of ^^^^ end with

|----------|
|-------3--|
|-----0----|
|---4------|
|-5--------|
|----------|

Verse:
  Free    my mind Heal  my    scars
|-----------------------------------|
|---------0---------------0---------|
|-----2-----2---2-----0-----0---0---|
|---2---2-----2-----2---2-----2-----|
|-0---------------0-----------------|
|-----------------------------------|

E  -    rase the   past       Dark
|-------------------------------------|
|---------3-----------------3---------|
|-----0-----0---0-------0-----0---0---|
|---2---2-----2-------4---4-----5-----|
|-3-----------------5-----------------|
|-------------------------------------|

  Days    to  forget            And
|------------------------------------|
|---------0---------------0----------|
|-----2-----2---2-----0-----0---0----|
|---2---2-----2-----2---2-----2------|
|-0---------------0------------------|
|------------------------------------|

 Memories    to    last    in my
|-------------------------------------|
|---------3-----------------3---------|
|-----0-----0---0-------0-----0---0---|
|---2---2-----2-------4---4-----5-----|
|-3-----------------5-----------------|
|-------------------------------------|

  Heart
|------------------------------------|
|------------------------------------|
|---------0------------0-------------|
|-----4------------4-----4---4-------|
|---2---2--------2---2-----2---------|
|-0------------0---------------------|

  Free    me  now
|------------------------------------|
|------------------------------------|
|---------0---------0-------0--------|
|-----4-----------4-------4----------|
|---2---2-------2-------2------------|
|-0-----------3-------2--------------|

  Make  me    forget    and   for-
|-----------------------------------|
|---------0---------------0---------|
|-----2-----2---2-----0-----0---0---|
|---2---2-----2-----2---2-----2-----|
|-0---------------0-----------------|
|-----------------------------------|
[ Tab from: http://www.guitaretab.com/e/epica/107555.html ]
  give  there's no  use          To
|-------------------------------------|
|---------3-----------------3---------|
|-----0-----0---0-------0-----0---0---|
|---2---2-----2-------4---4-----5-----|
|-3-----------------5-----------------|
|-------------------------------------|

  Go      on  and live            
|-----------------------------------|
|---------0---------------0---------|
|-----2-----2---2-----0-----0---0---|
|---2---2-----2-----2---2-----2-----|
|-0---------------0-----------------|
|-----------------------------------|

  Show    me  the   way     to    the
|-------------------------------------|
|---------3-----------------3---------|
|-----0-----0---0-------0-----0---0---|
|---2---2-----2-------4---4-----5-----|
|-3-----------------5-----------------|
|-------------------------------------|

  Sun
|------------------------------------|
|------------------------------------|
|---------0------------0-------------|
|-----4------------4-----4---4-------|
|---2---2--------2---2-----2---------|
|-0------------0---------------------|

  Heal    my  scars
|------------------------------------|
|------------------------------------|
|---------0---------0-------0--------|
|-----4-----------4-------4----------|
|---2---2-------2-------2------------|
|-0-----------3-------2--------------|

Chorus: (you pick it like an arpeggio)
Em        G        F#m   A5
Nothing will be forever gone
Em        G       F#m        A5
Memories will stay and find their way
Em                     G
What goes around will come around
F#m              A5
Donít deny your fears
                    Em
So let them go and fade into light
G                  Em
Give up the fight here

Verse

Chorus

Then the electric comes in: (This isn't completely accurate)

  Poison is slowly    seeping through my veins
|---------------------------------------------------|
|---------------------------------------------------|
|---------------------------------------------------|
|-14---------9-9-9-9------6-----------------5-------|
|-14---------9-9-9-9------6-----------------5-------|
|-12---------7-7-7-7------4-----------------3-------|
              |-----|
                P.M

  Stealing the only     dignity in me
|--------------------------------------------------|
|--------------------------------------------------|
|--------------------------------------------------|
|-14------------9-9-9-9------6---------------------|
|-14------------9-9-9-9------6---------------------|
|-12------------7-7-7-7----4-----------------------|

I pick them up and let them fall...
|--------------------------------------------------|
|--------------------------------------------------|
|--------------------------------------------------|
|-9-9---9-9-9-9------9-9-9-9-11-11-11-12-12-12-----|
|-9-9---9-9-9-9------9-9-9-9-11-11-11-12-12-12-----|
|-7-7---7-7-7-7------7-7-7-7-9--9--9--10-10-10-----| x2

I don't know the next bit...

The chorus changes to

B D C# E

And that's all I know.
Related for Chasing The Dragon tab