Song name
# A B C D E F G H I J K L M N O P Q R S T U V W X Y Z

Epica - Beyond The Dept tab

Help us improve GuitareTab! Take a short survey!
E||------------------0----|--L--------------------|-----------------0----|--L--------------------|
B||------------------0----|--L--------------------|-----------------0----|--L--------------------|
G||*-------0--------------|--------0---------0----|-------0--------------|--------0---------0----|
D||*--2---------4---------|-------------4---------|--2---------4---------|-------------4---------|
A||-----------------------|-----------------------|----------------------|-----------------------|
E||-----------------------|-----------------------|----------------------|-----------------------|


     
E|-----------------0----|--L--------------------|-----------------0----|--L--------------------|
B|-----------------0----|--L--------------------|-----------------0----|--L--------------------|
G|-------0--------------|--------0---------0----|-------0--------------|--------0---------0----|
D|--0---------4---------|-------------4---------|--0---------4---------|-------------4---------|
A|----------------------|-----------------------|----------------------|-----------------------|
E|----------------------|-----------------------|----------------------|-----------------------|



E|-----------------0----|--L--------------------|-----------------0----|--L--------------------|
B|-----------------0----|--L--------------------|-----------------0----|--L--------------------|
G|-------0--------------|--------0---------0----|-------0--------------|--------0---------0----|
D|--0---------4---------|-------------4---------|--0---------4---------|-------------4---------|
A|----------------------|-----------------------|----------------------|-----------------------|
E|----------------------|-----------------------|----------------------|-----------------------|



E|-----------------0----|--L--------------------|-----------------0----|--L--------------------|
B|-----------------0----|--L--------------------|-----------------0----|--L--------------------|
G|-------0--------------|--------0---------0----|-------0--------------|--------0---------0----|
D|--2---------4---------|-------------4---------|--2---------4---------|-------------4---------|
A|----------------------|-----------------------|----------------------|-----------------------|
E|----------------------|-----------------------|----------------------|-----------------------|



E|-----------------0----|--L--------------------|-----------------0----|--L--------------------|
B|-----------------1----|--L--------------------|-----------------1----|--L--------------------|
G|------------0---------|--------0---------0----|------------0---------|--------0---------0----|
D|-------2--------------|-------------2---------|-------2--------------|-------------2---------|
A|--3-------------------|-----------------------|--3-------------------|-----------------------|
E|----------------------|-----------------------|----------------------|-----------------------|



E|-----------------0----|--L--------------------|-----------------0----|--L--------------------|
B|-----------------1----|--L--------------------|-----------------1----|--L--------------------|
G|------------2---------|--------2---------2----|------------2---------|--------2---------2----|
D|-------2--------------|-------------2---------|-------2--------------|-------------2---------|
A|--0-------------------|-----------------------|--0-------------------|-----------------------|
E|----------------------|-----------------------|----------------------|-----------------------|



E|-----------------0----|--L--------------------|-----------------0----|--L---------------------||
B|-----------------1----|--L--------------------|-----------------3----|--L---------------------||
G|------------0---------|--------0---------0----|------------0---------|--------0---------0----*||
D|-------2--------------|-------------2---------|-------2--------------|-------------2---------*||
A|--3-------------------|-----------------------|--2-------------------|------------------------||
E|----------------------|-----------------------|----------------------|------------------------||




Tablature Legend
----------------
L - tied note


For any corrections send me a message
Related for Beyond The Dept tab