Song name
# A B C D E F G H I J K L M N O P Q R S T U V W X Y Z

Epicure - Hoping Its Not Hopeless tab

Tabbed by:Camel1

h=Hammer on
p=Pull off
x=Don't play
:|=Repeat
Tuning:EADGBE

Intro
e|----------------------2----------------------------------------------------|
B|-----3---3-----3------3-------3-------3------------------------------------|
G|---0--0---0---0-0-----2--0h2-2-2-0h2-2-2-0h2-------------------------------|
D|----------------------0----------------------------------------------------|
A|-3-----2---2h3---2-0-0-----------------------------------------------------|
E|---------------------------------------------------------------------------|

Verse 1
e|-3-3-3-3-3-3-3---3-3-3-3-3-------------------------------------------------|
B|-3-3-3-3-3-3-3---3-3-3-3-3-2-2-2-2-2-2-2h3-3-3-3p2-2-2---------------------|
G|-0-0-0-0-0-0-0---0-0-0-0-0-2-2-2-2-2-2-2---2-2-2---2-2---------------------|
D|-2-2-2-0-0-0-0---0-0-0-0-0-2-2-2-2-2-2-2---2-2-2---2-2---------------------|
A|-3-3-3-2-2-2-2h3-3-3-3-2-0-------------------------------------------------|
E|---------------------------------------------------------------------------|

Verse 2
e|-2-2-2-2-2-2-2-2-0-0-0-0-3-3-3-3-:| x4            
B|-3-3-3-3-3-3-3-3-3-3-3-3-3-3-3-3-:|
G|-2-2-2-2-2-2-2-2-2-2-2-2-0-0-0-0-:|
D|-0-0-0-0-0-0-0-0-0-0-0-0-0-0-0-0-:|
A|-x-x-x-x-x-x-x-x-0-0-0-0-2-2-2-2-:|
E|-x-x-x-x-x-x-x-x-2-2-2-2-3-3-3-3-:|

verse 3
e|-2------------:| x4     
B|-3-----3---3--:|
G|-2----0-0-0-0-:|
D|-0------------:|
A|-x---2---3----:|
E|-x------------:|

Bridge  
e|-3-3-3-3-3-3-3-3-3-3-3-3-2-2-2-2-3-3-3-3-2-2-2-2-3-2-0-3-3-3-3-3-3-3-3-3-3-|
B|-3-3-3-3-3-3-3-3-3-3-3-3-3-3-3-3-3-3-3-3-3-3-3-3-3-3-3-3-3-3-3-3-3-3-3-3-3-|
G|-0-0-0-0-0-0-0-0-0-0-0-0-2-2-2-2-2-2-2-2-2-2-2-2-2-2-2-0-0-0-0-0-0-0-0-0-0-|
D|-2-2-2-0-0-0-2-2-2-0-0-0-0-0-0-0-0-0-0-0-0-0-0-0-0-0-0-2-2-2-0-0-0-2-2-2-0-|
A|-3-3-3-2-2-2-3-3-3-2-2-2-x-x-x-x-x-x-x-x-x-x-x-x-x-x-x-3-3-3-2-2-2-3-3-3-2-|
E|-x-x-x-3-3-3-x-x-x-3-3-3-x-x-x-x-x-x-x-x-x-x-x-x-x-x-x-x-x-x-3-3-3-x-x-x-3-|

e|-3-0-0-0-0-0-0-0-0-0-0-0-0-0-0-0-0-----------------------------------------|
B|-3-2-2-2-2-3-3-3-3-2-2-2-2-3-3-3-3-----------------------------------------|
G|-0-2-2-2-2-2-2-2-2-2-2-2-2-2-2-2-2-----------------------------------------|
D|-0-2-2-2-2-2-2-2-2-2-2-2-2-2-2-2-2-----------------------------------------|
A|-2-0-0-0-0-0-0-0-0-0-0-0-0-0-0-0-0-----------------------------------------|
E|-3-x-x-x-x-x-x-x-x-x-x-x-x-x-x-x-x-----------------------------------------|

Chorus
e|-3-3-3-3-0-0-0-0-3-3-3-3-0-0-0-0-:| x4
B|-3-3-3-3-3-3-3-3-3-3-3-3-2-2-2-2-:|
G|-0-0-0-0-2-2-2-2-0-0-0-0-2-2-2-2-:|
D|-0-0-0-0-0-0-0-0-0-0-0-0-2-2-2-2-:|
A|-2-2-2-2-0-0-0-0-2-2-2-2-0-0-0-0-:|
E|-3-3-3-3-2-2-2-2-3-3-3-3-x-x-x-x-:|

Verse 2 x4
Verse 3 x4
Bridge x1
Chorus x4
Verse 2 x4
Bridge x1
chorus x 4
verse 2 x4
Then end on D
Tap to rate this tab
 
# A B C D E F G H I J K L M N O P Q R S T U V W X Y Z