Song name
# A B C D E F G H I J K L M N O P Q R S T U V W X Y Z

Epicure - Blow Those Blues Away tab

-------------------------------------------------------------------------------
		               Blow Those Blues Away - Epicure
-------------------------------------------------------------------------------
Tabbed by:	Scott
Email:		scott@gurumngari.com

Blow Those Blues Away by Epicure off the album Main Street (2005)

This tab is how I play the acoustic section of the introduction and the basic chord progression
used throughout the rest of the song.  The electric lead section of the intro is still a work 
in progress.  This is my first ever tab so I'd appreciate feedback and any corrections, especially 
to do with timing and tab layout.

Tuning: Standard Tuning Capo on 3rd Fret

[Intro]
e|---------------------------------------------------------------------------------|
B|-------------------------------------------------------------------------3-------|
G|--------------------------------------------------------------------2/4---4\2--0-|
D|------------------------------------------------------------------------0--------|
A|---------------------------------------------------------------------------------|
E|---------------------------------------------------------------------------------|

  Am                   C                   G                   D
e|---------------------------0-------------------0---------------------------------|
B|1-------0h1----0h1------4----4----4---------4----4----0--------3--3------3-------|
G|2-2-0h2-----0h2----0----0------0----0-------0------0----4----0h2--2--2/4---4\2-0-|
D|2------2---2------2-------------------3---------------------------0--------------|
A|0--------------------3-------------------2---------------------------------------|
E|-----------------------------------------3---------------------------------------|

  Am                   C                   G                   D
e|---------------------------0-------------------0------------------x--x--x-x--x---|
B|1-------0h1----0h1------4----4----4---------4----4----0--------3--3--3--3-3--3---|
G|2-2-0h2-----0h2----0----0------0----0-------0------0----4----0h2--2--2--2-2--2-0-|
D|2------2---2------2-------------------3---------------------------0--0--0-0--0---|
A|0--------------------3-------------------2---------------------------------------|
E|-----------------------------------------3---------------------------------------|

  D
e|------x--x-x-x--x-|
B|--3---3--3-3-3--3-|
G|0h2---2--2-2-2--2-|
D|------0--0-0-0--0-|
A|------------------|
E|------------------|

 /  slide up
 \  slide down
 h  hammer-on
 x  Mute note

Verse & Chorus
Am  C  G  D

Bridge
C  G  D  D
Tap to rate this tab
# A B C D E F G H I J K L M N O P Q R S T U V W X Y Z