Song name
# A B C D E F G H I J K L M N O P Q R S T U V W X Y Z

Epicure - Armies Against Me tab

-------------------------------------------------------------------------------
			     ARMIES AGAINTS ME - Epicure
-------------------------------------------------------------------------------
Tabbed by: Hughma Coll
Email:

Tuning: Standard EADGBE

This tabs is not entirely accurate.... jst something to work of untill someone makes a beter 

one

Strumming (does this for almost all of the song) 
     G   Bb F  C                         
e|---3---3--1--0------|
B|---3---3--1--1------|
G|---0---3--2--0------|
D|---0---3--3--2------|
A|---2---1--3--3------|
E|---3------1---------|

sometimes does this...
e|---3---3--1--------|
B|---3---3--1--------|
G|---0---3--2--------|
D|---0---3--3--------|
A|---2---1--3--------|
E|---3------1--------|


Intro Solo
e|-------------------------------------------------------------------------|
B|-------------------------------------------------------------------------|
G|--12~~~10-9------10-9--------------------------10------------------------|
D|-------------12-------12-10~~~--------------10----10----------10---------|
A|-------------------------------13-10-----------------13-10-13----13-10---|
E|-------------------------------------------------------------------------|

after chorus
e|-------------------------------------------------------------------------|
B|-------------------------------------------------------------------------|
G|--3-3-3-3/10-10-10-10----------------------------------------------------|
D|-------------------------------------------------------------------------|
A|-------------------------------------------------------------------------|
E|-------------------------------------------------------------------------|

First Solo
e|-------------------------------------------------------------------------|
B|-------------------------------------------------------------------------|
G|--12~~~10-9-------9-----------------------------------------------12--12-|
D|------------12-----12-10 10------------10----------12-12-12/15-15--------|
A|-------------------------------13-10-13----13-10~~-----------------------|
E|-------------------------------------------------------------------------|

Second Solo
e|-------------------------------------------------------------------------|
B|-------------------------------------------------------------------------|
G|--12~~~10-9----10-9----------------------10------------------------------|
D|------------12------12-10~~~----------10----10----------10---------------|
A|-----------------------------13-10-------------13-10-13----13-10---------|
E|-------------------------------------------------------------------------|

e|-------------------------------------------------------------------------|
B|-------------------------------------------------------------------------|
G|------10 12 12--12-10----------------------------------------------------|
D|---12-----------------12-12----10-------10-10-10-------------------------|
A|----------------------------13----13/10------------13/10-----------------|
E|-------------------------------------------------------------------------|

The last solo is a mix of the first few...



| /  slide up
| \  slide down
| h  hammer-on
| p  pull-off
| ~  vibrato
| +  harmonic
| x  Mute note
===============================================================================
Tap to rate this tab
# A B C D E F G H I J K L M N O P Q R S T U V W X Y Z