Song name
# A B C D E F G H I J K L M N O P Q R S T U V W X Y Z

Epik High - Heaven tab

===============================================================================
			     Heaven - Epik High                                
===============================================================================
Tabbed by: Dunn A (trushinobi@gmail.com)

I think this is pretty accurate

Tuning: Standard EADGBe

At the asterisks, do a little palm slap(/mute?) to make a beat. (I have no idea 

if I chose the right word to describe it but I hope you understand what I mean it 

lol)


  My Heaven.....                                                               

       *                  *                 *                   *               

e|---------0----0--------------------------------------------------0----------|
B|----1------1----1-1----3---3---3-----------------------------5--------5-----|
G|----2-------2----2-----0-----0---0-0-----5---5---5-----------4-----4----4-4-|
D|--3---3--------------2---2----2---2-----7--7---7----7-7-----5--5----5----5--|
A|-------------------2-----------------/5-----5---5----5---\3-----------------|
E|1-------1----------0------0-------------------------------------3-----------|

  My Heaven.....                                      is you......             
       *                  *                 *                  *               
e|---------0----0--------------------------------------------------0---------:|
B|----1------1----1-1----3---3---3---------3---3---3----------5--------5-----:|
G|----2-------2----2-----0-----0---0-0-----0-----0---0-0------4------4---4-4-:|
D|--3---3--------------2---2----2---2----2---2----2---2-----5---5-----5---5--:|
A|-------------------2-----------------2-----------------/3------3-----------:|
E|1-------1----------0------0----------0------0------------------------------:|

That's basically the whole song. Just repeat and fade out when you're done.

OR

You could end with the following C. 

C |x35450| or |x3x000|

===============================================================================

| *  palm slap? lol
| /  slide up
| \  slide down
| x  Mute note
| :  Repeat from beginning
===============================================================================
Tap to rate this tab
# A B C D E F G H I J K L M N O P Q R S T U V W X Y Z