Song name
# A B C D E F G H I J K L M N O P Q R S T U V W X Y Z

Epik High - Shh tab

Standard Tuning
this is 100% correct. played right from piano, and transferred to guitar.

E|---------------------18-----------------------------18---------------|
b|-----------------16-----16------16--------------16------16------16---|
G|-------------19-------------19--------------19--------------19-------|
D|--------17------------------------------17---------------------------|
A|---15-------------------------------15-------------------------------|
E|---------------------------------------------------------------------|


e|-------------------15-----------------------------15-----------------|
b|---------------13------13------13-------------13------13------13-----|
G|-----------15--------------15-------------15--------------15---------|
D|-------13------------------------------13----------------------------|
A|---11------------------------------11--------------------------------|
E|---------------------------------------------------------------------|


e|-------------------13------------------------------13----------------|
b|---------------11------11------11--------------11------11------11----|
G|-----------14--------------14--------------14--------------14--------|
D|-------12------------------------------12----------------------------|
A|---10------------------------------10--------------------------------|
E|---------------------------------------------------------------------|


e|------------------11--------------------------11----13---------------|
b|---------------9------9------9-------------9-------------------------|
G|-----------12------------12------------12----------------------------|
D|-------10--------------------------10--------------------------------|
A|---8----------------------------8------------------------------------|
E|---------------------------------------------------------------------|

Repeat as many times needed until song ends.
GOOD LUCK! JAM ON!
Tap to rate this tab
 
# A B C D E F G H I J K L M N O P Q R S T U V W X Y Z