Song name
# A B C D E F G H I J K L M N O P Q R S T U V W X Y Z

Eppu Normaali - Kitara Taivas Ja Thdet tab

-|9p7h9--12-9-7------------12--12---9-|-9-7-9--9/12-9-7---------12--12---12\9--|
-|--------------9-7-9-7----12--12---9-|----------------9-9p7---12--12---12\9---|
-|------------------------------------|----------------------------------------|
-|------------------------------------|----------------------------------------|
-|------------------------------------|----------------------------------------|
-|------------------------------------|----------------------------------------|


-9--7------------------|-9-7-9--9/12-9-7--------------12-12\9-----------------|
------10-9-7--10--9h10-|-----------------9-7h9-7--9-9----12\9-----------------|
-----------------------|------------------------------------------------------|
-----------------------|------------------------------------------------------|
-----------------------|------------------------------------------------------|
-----------------------|------------------------------------------------------|


-|-12-12\9--------------------------------|-9-9--7----------------------------|
-|-12-12\9--------------------------------|--------10-9-7---------------------|
-|----------/9-12-9-11-11\----------------|-----------------------------------|
-|----------------------------------------|-----------------------------------|
-|----------------------------------------|-----------------------------------|
-|----------------------------------------|-----------------------------------|


-|-5--5-5-----7--7-7-----5--5-5-----7--7-7-5-5---5-5-5--5-5--9-9--9-9---------|
-|-5--5-5-----7--7-7-----5--5-5-----7--7-7-5-5---5-5-5--5-5--9-9--9-9---------|
-|-6--6-6-----8--8-8-----8--8-8-----8--8-8-----------6--6-6-------------------|
-|-7--7-7-----9--9-9-----7--7-7-----9--9-9-----------7--7-7-------------------|
-|-7--7-7-----9--9-9-----7--7-7-----9--9-9-----------7--7-7-------------------|
-|-5--5-5-----7--7-7-----5--5-5-----7--7-7-----------5--5-5-------------------|


-|-9-7-9--9/12--9--------12--12-12-12--|-9-7-9--12-9--------12-12-12\---------|
-|----------------9-7----12--12-12-12--|-------------9-9-7--12-12-12\---------|
-|-------------------------------------|--------------------------------------|
-|-------------------------------------|--------------------------------------|
-|-------------------------------------|--------------------------------------|
-|-------------------------------------|--------------------------------------|


-|---12------12---------------------------|-7--7-7----------------------------|
-|-9----12p9----9-------------------------|--------10-9-10-9-7----------------|
-|----------------------------------------|-----------------------------------|
-|----------------------------------------|-----------------------------------|
-|----------------------------------------|-----------------------------------|
-|----------------------------------------|-----------------------------------|


-|-5--5-5-----7--7-7-----5--5-5-----7--7-7-5-5--5-5-5--5-5-9-9--9-9-----------|
-|-5--5-5-----7--7-7-----5--5-5-----7--7-7-5-5--5-5-5--5-5-9-9--9-9-----------|
-|-6--6-6-----8--8-8-----6--6-6-----8--8-8----------6--6-6--------------------|
-|-7--7-7-----9--9-9-----7--7-7-----9--9-9----------7--7-7--------------------|
-|-7--7-7-----9--9-9-----7--7-7-----9--9-9----------7--7-7--------------------|
-|-5--5-5-----7--7-7-----5--5-5-----7--7-7----------5--5-5--------------------|


-|-5-4--4-h5-4----------------------------|--------5--------------------------|
-|-5-5--5----5----------------------------|-5-5-5h7-7-------------------------|
-|-4-4--4----4----------------------------|-----------------------------------|
-|----------------------------------------|-----------------------------------|
-|----------------------------------------|-----------------------------------|
-|----------------------------------------|-----------------------------------|
                                            4xfast

-|---------------12-12--------------------|-----------------------------------|
-|-10-9--9-10-9---------------------------|-10/12-10/12-10/12-----------------|
-|-9--9--9-9--9---------------------------|--9/11--9/11--9/11-----------------|
-|-9--9--9-9--9---------------------------|-----------------------------------|
-|----------------------------------------|-----------------------------------|
-|----------------------------------------|-----------------------------------|


-|-9-7-9--12--9p--------12-p9-12-12-12-12-|-9-7-9-/12--9p-------9h12p-12p9-12-|
-|---------------9-9\7--12-p9-12-12-------|---------------9-9\7-9-------------|
-|----------------------------------------|-----------------------------------|
-|----------------------------------------|-----------------------------------|
-|----------------------------------------|-----------------------------------|
-|----------------------------------------|-----------------------------------|


-|-----------------------------------------------12-14-16-14------------------|
-|------------------------------------9-12-14-12------------------------------|
-|------------------9-11h12-9-11-9-11-----------------------------------------|
-|------------9-11------------------------------------------------------------|
-|-----7-9/11-----------------------------------------------------------------|
-|-7h9------------------------------------------------------------------------|


------------11-12-14-12-------------------------------------------------------|
---14p12h14-------------12----------------------------------------------------|
---------------------------13-11-11h13-11-------------------------------------|
------------------------------------------------------------------------------|
------------------------------------------------------------------------------|
------------------------------------------------------------------------------|


-|-9-12--12-12-12-12-9--------------------|-12p9-12p9-9-12p9-7----------------|
-|---12--12-12-12-12----------------------|-12---12------------9--------------|
-|----------------------------------------|-----------------------------------|
-|----------------------------------------|-----------------------------------|
-|----------------------------------------|-----------------------------------|
-|----------------------------------------|-----------------------------------|


-|-5--5-5-----7--7-7-----5--5-5-----7--7-7-5-5--5-5-5--5-5-9-9--9-9-----------|
-|-5--5-5-----7--7-7-----5--5-5-----7--7-7-5-5--5-5-5--5-5-9-9--9-9-----------|
-|-6--6-6-----8--8-8-----6--6-6-----8--8-8----------6--6-6--------------------|
-|-7--7-7-----9--9-9-----7--7-7-----9--9-9----------7--7-7--------------------|
-|-7--7-7-----9--9-9-----7--7-7-----9--9-9----------7--7-7--------------------|
-|-5--5-5-----7--7-7-----5--5-5-----7--7-7----------5--5-5--------------------|


-|-9-7-9--12-9p--------12--12-12--|-9-7-9--/12-9p-------12--12-\7-------------|
-|--------------9-9p7--12--12-12--|---------------9-9p7-12--12-\7-------------|
-|--------------------------------|-------------------------------------------|
-|--------------------------------|-------------------------------------------|
-|--------------------------------|-------------------------------------------|
-|--------------------------------|-------------------------------------------|


-|------------------------------------------------|---------------------------|
-|-/7-7-7---12-12--12-9-----10-9h10-10-9-9-10-7---|---------------------------|
-|-/7-7-7---12-12--12-9------9-9-----9-9-9--9-8---|---------------------------|
-|------------------------------------------------|---------------------------|
-|------------------------------------------------|---------------------------|
-|------------------------------------------------|---------------------------|


-|-12-12-\9--12-12-\9-12-\9------|--------------------------------------------|
-|-12-12-\9--12-12-\9-12-\9------|-9h10-9h10--9h10-9-12-10--------------------|
-|-------------------------------|-9----9-----9----9-11--9--------------------|
-|-------------------------------|--------------------------------------------|
-|-------------------------------|--------------------------------------------|
-|-------------------------------|--------------------------------------------|


-|--------5--------------|----------------------------------------------------|
-|-5-5-5h7-7-------------|-10-9-10-9-9h10-10-10-9-----------------------------|
-|-----------------------|--9-9--9-9-9-----9--9-9-----------------------------|
-|-----------------------|----------------------------------------------------|
-|-----------------------|----------------------------------------------------|
-|-----------------------|----------------------------------------------------|


-|----------------------------|-----------------------------------------------|
-|-9-10-9-10-9-10-9-9-10------|--9-10-9-10-9-10-9-10-10-9---------------------|
-|-9--9-9--9-9--9-9-9--9------|--9--9-9--9-9--9-9--9--9-9---------------------|
-|-9--9-9--9-9--9-9-9--9------|--9--9-9--9-9--9-9--9--9-9---------------------|
-|----------------------------|-----------------------------------------------|
-|----------------------------|-----------------------------------------------|


-|-----------------------|---12-9---------------------------------------------|
-|-9-10-10-9-9-10-9-10-9-|--------12-9----------------------------------------|
-|-9--9--9-9-9--9-9--9-9-|-------------12-11-9--------------------------------|
-|-9--9--9-9-9--9-9--9-9-|---------------------11-9---------------------------|
-|-----------------------|--------------------------11-10-9-------------------|
-|-----------------------|----------------------------------12-9--------------|
Tap to rate this tab
# A B C D E F G H I J K L M N O P Q R S T U V W X Y Z