Guitaretab - guitar tabs
Song name
# A B C D E F G H I J K L M N O P Q R S T U V W X Y Z

Eppu Normaali - Kamat Lujilla tab

Eppu Normaali - Kamat lujilla
Album: Maximum Jee & Jee
Standard tuning (eadgbe)

Okay. So here are some parts of the song. I couldn't figure the rest, but here's still 
to begin with.


Intro:
Guitar 1
|-------------------------|
|-------------------------|
|-------------------------|
|-------------------------|
|-7-7-5--7-7-5--7-7-5-----|
|---------------------7---|
[ Tab from: http://www.guitaretab.com/e/eppu-normaali/109057.html ]
Guitar 2 may play the riff above or:
|-------------------------|
|-------------------------|
|-------------------------|
|-9-9-7--9-9-7--9-9-7-4---|
|-7-7-5--7-7-5--7-7-5-2---|
|-------------------------|

Verse:
Both guitars

Sillä vasta saundi nasta....
|---------------------|
|---------------------|
|---------------------|
|-9-9-9-9-11-6-6-9----|
|-7-7-7-7-9--4-4-7----|
|---------------------|

...kun tarpeeks vääntää nappulasta.

|--------------------------------|
|--------------------------------|
|--------------------------------|
|-11-11-11-6-6-6-4-2-2-2---4-2-2-|
|-9--9--9--4-4-4-2-0-0-0---2-0-0-|
|--------------------------------|
Related for Kamat Lujilla tab
Advertisement will be closed in 10 seconds