Song name
# A B C D E F G H I J K L M N O P Q R S T U V W X Y Z

Eppu Normaali - Pidetaan Ikavaa tab

Eppu Normaali - Pidetään ikävää
Album: Maximum Jee & Jee
Tuning: Standard

Main riff:

   A    D     A    D      C      G     E  A
|-------------------------------------------------|
|-------------------------------------------------|
|-------------------------------------------------|
|-----7-7-7------7-7-7--5-5-5-------------2-------|     
|-7-7-5-5-5--7-7-5-5-5--3-3-3--5-5-5--2-2-0-------| 
|-5-5--------5-5---------------3-3-3--0-0---------|

Chorus:
  E      D   A     D
|---------------------------|
|--------3---------3--------|
|--------2---------2--------|
|-----------2--2-2----------|     
|-2--2-2----0--0-0----------| 
|-0--0-0--------------------|

After chorus:

|-3-2-0--0-3-0-------|
|--------------------|
|--------------------|
|--------------------|     
|--------------------| 
|--------------------|

Sorry, I don't know the solo. :(
Tap to rate this tab
# A B C D E F G H I J K L M N O P Q R S T U V W X Y Z