Song name
# A B C D E F G H I J K L M N O P Q R S T U V W X Y Z

Eppu Normaali - Lainelautaileva Lehmanmaha Rock N Roll tab

Eppu Normaali - Lainelautaileva Lehmanmaha Rock N Roll
--- --- --- --- ---


    D
E ------|
B ------|
G --7---|
D --7---|
A --5---|
E ------|


    D                C                G                D
E --------------------------------------------------------------|
B --------------------------------------------------------------|
G --7-7-7-7-7-7-7-7--5-5-5-5-5-5-5-5-------------------7-7-7-7--|
D --7-7-7-7-7-7-7-7--5-5-5-5-5-5-5-5--5-5-5-5-5-5-5-5--7-7-7-7--|
A --5-5-5-5-5-5-5-5--3-3-3-3-3-3-3-3--5-5-5-5-5-5-5-5--5-5-5-5--|
E ------------------------------------3-3-3-3-3-3-3-3-----------|
  Laine-lainelautaileva laine-lainelautaileva lehmanmaha rock n roll


    G                G                G                G
E ----------------------------------------------------------------------|
B ----------------------------------------------------------------------|
G ----------------------------------------------------------------------|
D --5-5-5-5-5-5-5-5--5-5-5-5-5-5-5-5--5-5-5-5-5-5-5-5--5-5-5-5-5-5-5-5--|
A --5-5-5-5-5-5-5-5--5-5-5-5-5-5-5-5--5-5-5-5-5-5-5-5--5-5-5-5-5-5-5-5--|
E --3-3-3-3-3-3-3-3--3-3-3-3-3-3-3-3--3-3-3-3-3-3-3-3--3-3-3-3-3-3-3-3--|
    Muu-muu papa, Muu-muu papa, Muu-muu papa, Muu-muu papa


    C                C                G                G
E ----------------------------------------------------------------------|
B ----------------------------------------------------------------------|
G --5-5-5-5-5-5-5-5--5-5-5-5-5-5-5-5------------------------------------|
D --5-5-5-5-5-5-5-5--5-5-5-5-5-5-5-5--5-5-5-5-5-5-5-5--5-5-5-5-5-5-5-5--|
A --3-3-3-3-3-3-3-3--3-3-3-3-3-3-3-3--5-5-5-5-5-5-5-5--5-5-5-5-5-5-5-5--|
E ------------------------------------3-3-3-3-3-3-3-3--3-3-3-3-3-3-3-3--|
    Muu-muu papa, Muu-muu papa, Muu-muu papa, Muu-muu papa


    D                C                G                D        F#  G
E ----------------------------------------------------------------------|
B ----------------------------------------------------------------------|
G --7-7-7-7-7-7-7-7--5-5-5-5-5-5-5-5-------------------7-7-7-7--11--12--|
D --7-7-7-7-7-7-7-7--5-5-5-5-5-5-5-5--5-5-5-5-5-5-5-5--7-7-7-7--11--12--|
A --5-5-5-5-5-5-5-5--3-3-3-3-3-3-3-3--5-5-5-5-5-5-5-5--5-5-5-5--9---10--|
E ------------------------------------3-3-3-3-3-3-3-3-------------------|
  Laine-lainelautaileva laine-lainelautaileva lehmanmaha rock n roll


    G#  G     F#  G     G#  G  G
E ---------------------------------|
B ---------------------------------|
G --13--12----11--12----13--12-12--|
D --13--12----11--12----13--12-12--|
A --11--10----9---10----11--10-10--|
E ---------------------------------|
    Verkkomaha, potsi ja satakerta
    Joka jatka tietaa, aina sen verta
    Et jollei lehmalla vatsa murise
    Niin silloin se on kuollut, jee-ee


    C                C                G                G
E ----------------------------------------------------------------------|
B ----------------------------------------------------------------------|
G --5-5-5-5-5-5-5-5--5-5-5-5-5-5-5-5------------------------------------|
D --5-5-5-5-5-5-5-5--5-5-5-5-5-5-5-5--5-5-5-5-5-5-5-5--5-5-5-5-5-5-5-5--|
A --3-3-3-3-3-3-3-3--3-3-3-3-3-3-3-3--5-5-5-5-5-5-5-5--5-5-5-5-5-5-5-5--|
E ------------------------------------3-3-3-3-3-3-3-3--3-3-3-3-3-3-3-3--|
    Joka jatka tietaa [tietaa tietaa] joka jatka tietaa [tietaa tietaa]


    D                C                G                D
E --------------------------------------------------------------|
B --------------------------------------------------------------|
G --7-7-7-7-7-7-7-7--5-5-5-5-5-5-5-5-------------------7-7-7-7--|
D --7-7-7-7-7-7-7-7--5-5-5-5-5-5-5-5--5-5-5-5-5-5-5-5--7-7-7-7--|
A --5-5-5-5-5-5-5-5--3-3-3-3-3-3-3-3--5-5-5-5-5-5-5-5--5-5-5-5--|
E ------------------------------------3-3-3-3-3-3-3-3-----------|
    Joka jatka tietaa, taa on lehmanmaha rock n roll


    G                G                G                G
E ----------------------------------------------------------------------|
B ----------------------------------------------------------------------|
G ----------------------------------------------------------------------|
D --5-5-5-5-5-5-5-5--5-5-5-5-5-5-5-5--5-5-5-5-5-5-5-5--5-5-5-5-5-5-5-5--|
A --5-5-5-5-5-5-5-5--5-5-5-5-5-5-5-5--5-5-5-5-5-5-5-5--5-5-5-5-5-5-5-5--|
E --3-3-3-3-3-3-3-3--3-3-3-3-3-3-3-3--3-3-3-3-3-3-3-3--3-3-3-3-3-3-3-3--|
    Muu-muu papa, Muu-muu papa, Muu-muu papa, Muu-muu papa


    C                C                G                G
E ----------------------------------------------------------------------|
B ----------------------------------------------------------------------|
G --5-5-5-5-5-5-5-5--5-5-5-5-5-5-5-5------------------------------------|
D --5-5-5-5-5-5-5-5--5-5-5-5-5-5-5-5--5-5-5-5-5-5-5-5--5-5-5-5-5-5-5-5--|
A --3-3-3-3-3-3-3-3--3-3-3-3-3-3-3-3--5-5-5-5-5-5-5-5--5-5-5-5-5-5-5-5--|
E ------------------------------------3-3-3-3-3-3-3-3--3-3-3-3-3-3-3-3--|
    Muu-muu papa, Muu-muu papa, Muu-muu papa, Muu-muu papa


    D                C                G                D        F#  G
E ----------------------------------------------------------------------|
B ----------------------------------------------------------------------|
G --7-7-7-7-7-7-7-7--5-5-5-5-5-5-5-5-------------------7-7-7-7--11--12--|
D --7-7-7-7-7-7-7-7--5-5-5-5-5-5-5-5--5-5-5-5-5-5-5-5--7-7-7-7--11--12--|
A --5-5-5-5-5-5-5-5--3-3-3-3-3-3-3-3--5-5-5-5-5-5-5-5--5-5-5-5--9---10--|
E ------------------------------------3-3-3-3-3-3-3-3-------------------|
  Laine-lainelautaileva laine-lainelautaileva lehmanmaha rock n roll


    G#  G     F#  G     G#  G  G
E ---------------------------------|
B ---------------------------------|
G --13--12----11--12----13--12-12--|
D --13--12----11--12----13--12-12--|
A --11--10----9---10----11--10-10--|
E ---------------------------------|
    Verkkomaha, potsi ja satakerta
    Joka jatka tietaa, aina sen verta
    Et jollei lehmalla vatsa murise
    Niin silloin se on kuollut, jee-ee


    C                C                G                G
E ----------------------------------------------------------------------|
B ----------------------------------------------------------------------|
G --5-5-5-5-5-5-5-5--5-5-5-5-5-5-5-5------------------------------------|
D --5-5-5-5-5-5-5-5--5-5-5-5-5-5-5-5--5-5-5-5-5-5-5-5--5-5-5-5-5-5-5-5--|
A --3-3-3-3-3-3-3-3--3-3-3-3-3-3-3-3--5-5-5-5-5-5-5-5--5-5-5-5-5-5-5-5--|
E ------------------------------------3-3-3-3-3-3-3-3--3-3-3-3-3-3-3-3--|
    Joka jatka tietaa [tietaa tietaa] joka jatka tietaa [tietaa tietaa]


    D                C                G                D
E --------------------------------------------------------------|
B --------------------------------------------------------------|
G --7-7-7-7-7-7-7-7--5-5-5-5-5-5-5-5-------------------7-7-7-7--|
D --7-7-7-7-7-7-7-7--5-5-5-5-5-5-5-5--5-5-5-5-5-5-5-5--7-7-7-7--|
A --5-5-5-5-5-5-5-5--3-3-3-3-3-3-3-3--5-5-5-5-5-5-5-5--5-5-5-5--|
E ------------------------------------3-3-3-3-3-3-3-3-----------|
    Joka jatka tietaa, taa on lehmanmaha rock n roll


    G                G                G                G
E ----------------------------------------------------------------------|
B ----------------------------------------------------------------------|
G ----------------------------------------------------------------------|
D --5-5-5-5-5-5-5-5--5-5-5-5-5-5-5-5--5-5-5-5-5-5-5-5--5-5-5-5-5-5-5-5--|
A --5-5-5-5-5-5-5-5--5-5-5-5-5-5-5-5--5-5-5-5-5-5-5-5--5-5-5-5-5-5-5-5--|
E --3-3-3-3-3-3-3-3--3-3-3-3-3-3-3-3--3-3-3-3-3-3-3-3--3-3-3-3-3-3-3-3--|
    Muu-muu papa, Muu-muu papa, Muu-muu papa, Muu-muu papa


    C                C                G                G
E ----------------------------------------------------------------------|
B ----------------------------------------------------------------------|
G --5-5-5-5-5-5-5-5--5-5-5-5-5-5-5-5------------------------------------|
D --5-5-5-5-5-5-5-5--5-5-5-5-5-5-5-5--5-5-5-5-5-5-5-5--5-5-5-5-5-5-5-5--|
A --3-3-3-3-3-3-3-3--3-3-3-3-3-3-3-3--5-5-5-5-5-5-5-5--5-5-5-5-5-5-5-5--|
E ------------------------------------3-3-3-3-3-3-3-3--3-3-3-3-3-3-3-3--|
    Muu-muu papa, Muu-muu papa, Muu-muu papa, Muu-muu papa


    D                C                G                D        F#  G
E ----------------------------------------------------------------------|
B ----------------------------------------------------------------------|
G --7-7-7-7-7-7-7-7--5-5-5-5-5-5-5-5-------------------7-7-7-7--11--12--|
D --7-7-7-7-7-7-7-7--5-5-5-5-5-5-5-5--5-5-5-5-5-5-5-5--7-7-7-7--11--12--|
A --5-5-5-5-5-5-5-5--3-3-3-3-3-3-3-3--5-5-5-5-5-5-5-5--5-5-5-5--9---10--|
E ------------------------------------3-3-3-3-3-3-3-3-------------------|
  Laine-lainelautaileva laine-lainelautaileva lehmanmaha rock n roll


    Muu-muu papa, Muu-muu papa, Muu-muu papa, Muu-muu papa
    Muu-muu papa, Muu-muu papa, Muu-muu papa, Muu-muu papa


    G                G                G                G
E ----------------------------------------------------------------------|
B ----------------------------------------------------------------------|
G ----------------------------------------------------------------------|
D --5-5-5-5-5-5-5-5--5-5-5-5-5-5-5-5--5-5-5-5-5-5-5-5--5-5-5-5-5-5-5-5--|
A --5-5-5-5-5-5-5-5--5-5-5-5-5-5-5-5--5-5-5-5-5-5-5-5--5-5-5-5-5-5-5-5--|
E --3-3-3-3-3-3-3-3--3-3-3-3-3-3-3-3--3-3-3-3-3-3-3-3--3-3-3-3-3-3-3-3--|
    Muu-muu papa, Muu-muu papa, Muu-muu papa, Muu-muu papa


    C                C                G                G
E ----------------------------------------------------------------------|
B ----------------------------------------------------------------------|
G --5-5-5-5-5-5-5-5--5-5-5-5-5-5-5-5------------------------------------|
D --5-5-5-5-5-5-5-5--5-5-5-5-5-5-5-5--5-5-5-5-5-5-5-5--5-5-5-5-5-5-5-5--|
A --3-3-3-3-3-3-3-3--3-3-3-3-3-3-3-3--5-5-5-5-5-5-5-5--5-5-5-5-5-5-5-5--|
E ------------------------------------3-3-3-3-3-3-3-3--3-3-3-3-3-3-3-3--|
    Muu-muu papa, Muu-muu papa, Muu-muu papa, Muu-muu papa


    D                C                G                D        F#  G
E ----------------------------------------------------------------------|
B ----------------------------------------------------------------------|
G --7-7-7-7-7-7-7-7--5-5-5-5-5-5-5-5-------------------7-7-7-7--11--12--|
D --7-7-7-7-7-7-7-7--5-5-5-5-5-5-5-5--5-5-5-5-5-5-5-5--7-7-7-7--11--12--|
A --5-5-5-5-5-5-5-5--3-3-3-3-3-3-3-3--5-5-5-5-5-5-5-5--5-5-5-5--9---10--|
E ------------------------------------3-3-3-3-3-3-3-3-------------------|
  Laine-lainelautaileva laine-lainelautaileva lehmanmaha rock n roll!
Tap to rate this tab
 
# A B C D E F G H I J K L M N O P Q R S T U V W X Y Z