Eppu Normaali - Vuonna 85 tab

e|---------------------------------------------------------------------------|
B|---------------------------------------------------------------------------|
G|---------------------------------------------------------------------------|
D|---14\2--2-----4---------------------------------------2----4--------------|
A|------------4-----4--2--2--4--------------------2--4------------2-2-2-4----|
E|------------------------------5--0--2----4--5---------------------------5--|


e|---------------------------------------------------------------------------|
B|-----------------------------------------5-4----7--5-4---------------------|
G|------------------6--4---------------4-4-----4-----------4-6-4-6-----------|
D|-------------------------7-6-4--6-7----------------------------------------|
A|---2-2-2-4-----------------------------------------------------------------|
E|-----------5---------------------------------------------------------------|


e|---------------------------------------------------------------------------|
B|----------------------------12---------------------------------------------|
G|---6--4--------------4-4----------------4/6----11--------------------------|
D|---------7-6-4--6-7--------------------------------------------------------|
A|---------------------------------------------------------------------------|
E|---------------------------------------------------------------------------|
Tap to rate this tab
 
# A B C D E F G H I J K L M N O P Q R S T U V W X Y Z