Song name
# A B C D E F G H I J K L M N O P Q R S T U V W X Y Z

Eppu Normaali - Nyt Reppuni Jupiset Riimisi Rupiset tab

Tuning:Standard EADGHE

Intro: Pantse


-----------------------------------------------------------------------------|
-----------------------------------------------------------------------------|
-----------------------------------------------------------------------------|
-----------------------------------------------------------------------------|
--2---2---4---5---4---2---2---4---5---4---2---2---4---5---4------------------|
--0---0---0---0---0---0---0---0---0---0---0---0---0---0---0------------------|



----3----2------------|
----3----3------------|
----0----2------------|
----0----0------------|
----2-----------------|
----3-----------------|
Tap to rate this tab
# A B C D E F G H I J K L M N O P Q R S T U V W X Y Z