Song name
# A B C D E F G H I J K L M N O P Q R S T U V W X Y Z

Eppu Normaali - Poliisi Pamputtaa Taas tab

Poliisi pamputtaa taas by Eppu Normaali

Intro
e---------------------------------------------------|
B-18-16-18-16-18-16-18b-18b-------------------------|
G---------------------------------------------------|
D---------------------------------------------------|
A---------------------------------------------------|
E---------------------------------------------------|
Verse
   A#/Bb5     F5   D#/Eb5
e---------------------------------------------------|
B---------------------------------------------------|
G---------------------------------------------------|
D--------10101010--8888--10101010-------------------|
A---8888--8-8-8-8--6666---8-8-8-8-------------------|
E---6666--------------------------------------------|
Chorus
    Eb5   E5   F5  E5
e---------------------------------------------------|
B---------------------------------------------------|
G---------------------------------------------------|
D--8888--9-10101010-9-------------------------------|
A--6666--7--8-8-8-8-7-------------------------------|
E---------------------------------------------------|
Solo
e---------------------------------------------------|
B-11-11-11-11-11-13-13-15-15-15---------------------|
G---------------------------------------------------|
D---------------------------------------------------|
A---------------------------------------------------|
E---------------------------------------------------|

e---------------------------------------------------|
B-11-11-11-11-11-13-13-11-11-11-11-15b--------------|
G---------------------------------------------------|x3
D---------------------------------------------------|
A---------------------------------------------------|
E---------------------------------------------------|

e---------------------------------------------------|
B-16tr18--11-11-11-11-13-13-11-11-11-15b------------|
G---------------------------------------------------|
D---------------------------------------------------|
A---------------------------------------------------|
E---------------------------------------------------|

e---------------------------------------------------|
B--16b-16b-16b-16b-16b--18b-18b-18b-18b-------------|
G---------------------------------------------------|
D---------------------------------------------------|
A---------------------------------------------------|
E---------------------------------------------------|
Tap to rate this tab
 
# A B C D E F G H I J K L M N O P Q R S T U V W X Y Z