Song name
# A B C D E F G H I J K L M N O P Q R S T U V W X Y Z

Equally Screwed - Nedacide tab

Equally Screwed - Nedacide

Verse
E|--------------
B|--------------
G|----2-33-5-55-
D|--3-2-33-5-55-
A|--3-4-55-7-77-
E|--5-----------

E|--------------------------------------
B|--------------------------------------
G|-----------22222222-33333333-55555555-
D|--33333333-22222222-33333333-55555555-
A|--33333333-44444444-55555555-77777777-
E|--55555555----------------------------

Chorus
E|--------------------------------------
B|--------------------------------------
G|-----------22222222-33333333-55555555-
D|--33333333-22222222-33333333-55555555-
A|--33333333-44444444-55555555-77777777-
E|--55555555----------------------------
                       
(Slower than the Verse cos Joe is singing)
Tap to rate this tab
# A B C D E F G H I J K L M N O P Q R S T U V W X Y Z