Song name
# A B C D E F G H I J K L M N O P Q R S T U V W X Y Z

Equals - Baby Come Back chords

Highlighted       Show chord diagrams
Baby, Come Back:The Equals.
#1 in the UK in 1968.

INTRO:
----------------------------------------------------------------|
----------------------------------------------------------------|
----------------------------------------------------------------|
----------------------------------------------------------------|
--2-2----2-------------0-2-0-2-2-----2---------------0-2-0-2----|
------4----4-2----2-2-------------4-----4-2------2-2------------|



RIFF: (Play after each 'back' in chorus..fast change to F# to E to B.)
-----------------------|  
-----------------------|  (Same in OUTRO at the end.) 
-----------------------|
-----------------------|
--2-2----2-------------|
------4----4-2---------|


CHORUS:
E    B    F#   E          B   F#     
Come back......Baby, come back.
E          B   F#   E          B   F#
Baby, come back.....Baby, come back.

#1.
F#
This is the first time, until today, 

that you have, run away.

I'm asking you for the first time,

Love me enough and stay, ahh.
                  F#7
Hey-ahh..Hey-ahh..Hey, yeah.

CHORUS:
E    B    F#   E          B   F#     
Come back......Baby, come back.
E          B   F#   E          B   F#
Baby, come back.....Baby, come back.

#2.
F#
There ain't no use in you crying.

Cause I'm more hurt than you.

I should not have been out flirting..

but now my love is true-ahh..ooo-ahh..oo-ahh..
F#7
Ooo-yeah.

CHORUS:
E    B    F#   E          B   F#     
Come back......Baby, come back.
E          B   F#   E          B   F#
Baby, come back.....Baby, come back.

#3.
F#
Come back, baby, don't you leave me.

Baby, baby, don't go.

Oh, won't you give me a second chance?

Baby, I love you so-ahh..ohh-ah..ohh-ahh..
F#7
Oh, yeah.

CHORUS:
E    B    F#           E          B   F#     
Come back......I said, Baby, come back.
        E          B   F#           E          B   F#
I said, Baby, come back.....I said..Baby, come back.

OUTRO:

F#            E           B    F#
Oh, won't you please come back?
F#            E           B    F#
Oh, won't you please come back? (Fade.)


A sixties smash from Kraziekhat.


Tap to rate this tab
# A B C D E F G H I J K L M N O P Q R S T U V W X Y Z