Song name
# A B C D E F G H I J K L M N O P Q R S T U V W X Y Z

Equinox - Love Plus Alcohol tab

			     Love+Alcohol = One night stand - Equinox
-------------------------------------------------------------------------------
Tabbed by:bassmastaman(Andrew Y)

Tuning:Drop D

e|--------------------------------------------------------------------------|
B|--------------------------------------------------------------------------|
G|--------------------------------------------------------------------------|
D|--------11-----1211-----11-----------7-----97-----7-----------------------|
A|-----9------9--------9------------5-----5------5--------------------------|
D|--9----------------------------5------------------------------------------|

e|--------------------------------------------------------------------------|
B|--------------------------------------------------------------------------|
G|--------------------------------------------------------------------------|
D|--------11-----1211-------5-----------------------------------------------|
A|-----9------9-------------5-----------------------------------------------|
D|--9-----------------------5--~ring~---------------------------------------|
Tap to rate this tab
 
# A B C D E F G H I J K L M N O P Q R S T U V W X Y Z