Song name
# A B C D E F G H I J K L M N O P Q R S T U V W X Y Z

Equinox - Watching You tab

----------------------------------------------------------------------------
			     Watching You - Equinox
----------------------------------------------------------------------------
Tabbed by:bassmastaman(Andrew Y)
Email:skatepunk@hotmail.co.uk

Tuning:Drop D

Part A
e|---------------------------------------------------------------|
B|-------0---------1-----------3---3-----------------------------|
G|---------0---------0-------0-------0---------------------------|
D|-----2--------2---------4------4-------------------------------|
A|---2--------3---------5----------------------------------------|
D|---------------------------------------------------------------|

Part B
e|-------------------------------------------------------|
B|-------------------------------------------------------|
G|-4444-5555-77777777-4444-5555-77777777-----------------|
D|-4444-5555-77777777-4444-5555-77777777-----------------|
A|-2222-3333-55555555-2222-3333-55555555-----------------|
D|-------------------------------------------------------|

Part C
e|--------------------------------------------------------------------------|
B|--------------------------------------------------------------------------|
G|-----0-----0-----0----0----0----0-----------------------------------------|
D|---4-----5-----7----7----7----7-------------------------------------------|
A|-2-----3-----5----5----5----5---------------------------------------------|
D|--------------------------------------------------------------------------|

Repeat Sections as appropriate

Have fun
Tap to rate this tab
# A B C D E F G H I J K L M N O P Q R S T U V W X Y Z