Era - Enae Volare tab

Title: Enae Volare
Artist: Era
Tempo = 120
Electric Guitar

Legend
AH -  Artificial Harmonic
() - Ghost note
~ - Vibrato
h - hammer on
p - pull off
b - bend
br - bend release
/ - slide in
PM - Palm Mute




E |-------|-------------------|-------------|-----------------------|
B |-------|-------------------|-------/22L--|---12b----12br-12~-----|
G |--7~---|--4--5--12b-(12)~--|-------------|-----------------------|
D |-------|-------------------|--15~--------|-----------------------|
A |-------|-------------------|-------------|-----------------------|
E |-------|-------------------|-------------|-----------------------|
    AH                           AH




---------------------------------|------10-12-10-------------|
----------12h---13p(12)----------|----------------10---------|
-----14-----------------12/14~~--|--------------------9~~~---|
---------------------------------|---------------------------|
---------------------------------|---------------------------|
---------------------------------|---------------------------|
     PM



---------------10--8------------------------------------------|
--------------------------------------------------------------|
--------9h-10----------9-----------------14br--14~~~----------|
--------------------------10--9~~~----------------------------|
--------------------------------------------------------------|
--------------------------------------------------------------|
                                         AH    AH



-------------------12~-(12)-h13p12------------12--------------|
---------------(13)-----------------15~------------13~~~------|
-----------/14------------------------------------------------|
--------------------------------------------------------------|
--------------------------------------------------------------|
--------------------------------------------------------------|



------------------------------------------------|------------|
------------------------------------------------|------------|
-------------9--------------9-(9)h10p9----------|------------|
--------(10)----12--10p9~--------------12~~~----|------------|
----/12-----------------------------------------|----12-14---|
------------------------------------------------|------------|





------------------------15-17~~~--|
--------------------12------------|
----------12-14-12----------------|
---12-14--------------------------|
----------------------------------|
----------------------------------|
                           AH


By  Grisho
doubts, suggestions,  corrections to:  rojo_2801@hotmail.com
enjoy ;)
Tap to rate this tab
 
# A B C D E F G H I J K L M N O P Q R S T U V W X Y Z