Song name
# A B C D E F G H I J K L M N O P Q R S T U V W X Y Z

Era - Era tab

Era - ERA

E-------------------------------------------16---------------------------|
B----------------------15--16--13----------------------------------------|
G-------------12-15-----------------12-13--------------------------------|
D-13-13----13------------------------------------------------------------|
A-------13---------------------------------------------------------------|
E------------------------------------------------------------------------|


E-16-16-15--------------15-18--22-b22------------------------------------|
B----------16--------16--------------------------------------------------|
G--------------15-15-----------------------------------------------------|
D------------------------------------------------------------------------|
A------------------------------------------------------------------------|
E------------------------------------------------------------------------|

E---------------------------------------15-15-16-16--18-18-15------------|
B----------------------15--15/16-16/18------------------------16---------|
G-------------12-15---------------------------------------------15-15----|
D-13-13----13------------------------------------------------------------|
A-------13---------------------------------------------------------------|
E------------------------------------------------------------------------|

E----15-18----------------------------------------------------------------|
B-16----------------------------------------------------------------------|
G------------15------------------------13-12--------10-12-10--------------|
D----------------12-13--12-13---------------------------------------------|
A-------------------------------15---13--------11-13-------------13-11-10-|
E-------------------------------------------------------------------------|

Tabbed by: Simon
Tap to rate this tab
# A B C D E F G H I J K L M N O P Q R S T U V W X Y Z