Song name
# A B C D E F G H I J K L M N O P Q R S T U V W X Y Z

Eraserheads - Withing Wells tab

           F#                E           B
e|-----14--14-13-11----|----11-------|-12--12-|
B|-11---------------14-|-12----12----|--------|
G|---------------------|----------11-|--------|
D|---------------------|-------------|--------|
A|---------------------|-------------|--------|
E|---------------------|-------------|--------|


           F#                E           B
e|-----14--14-13-11----|----11-------|-12--12-|
B|-11---------------14-|-12----12----|--------|
G|---------------------|----------11-|--------|
D|---------------------|-------------|--------|
A|---------------------|-------------|--------|
E|---------------------|-------------|--------|
Tap to rate this tab
 
# A B C D E F G H I J K L M N O P Q R S T U V W X Y Z