Song name
# A B C D E F G H I J K L M N O P Q R S T U V W X Y Z

Eraserheads - Toyang tab

song title:  TOYANG
band/artist: The Eraserheads
tabbed by:   Paulo Prima (primesenthyx@yahoo.com)

-------------------------------------------------------------------------------------------------

INTRO:
This, this, this next song is all about Love...
..and i wrote it all by myself..

I.
      A     C#m                Bm - E
They try to tell us we're too young,
     A       C#m           Bm - E-E-E
too young to really be in love...

guitar1 & 2
  A     C#m   Bm    E      A       C#m     Bm      E
|-5~~-|-4~~-|-2~~-|-x---|-5-5---|-4-4---|-2-2---|-x-x-x-|
|-5~~-|-5~~-|-3~~-|-0~~-|-5--5--|-5--5--|-3---3-|-0-0-0-|
|-6~~-|-6~~-|-4~~-|-1~~-|-6---6-|-6---6-|-4-----|-1-1-1-|
|-7~~-|-6~~-|-4~~-|-2~~-|-7-----|-6-----|-4-----|-2-2-2-|
|-7~~-|-4~~-|-2~~-|-2~~-|-7-----|-4-----|-2-----|-2-2-2-|
|-5~~-|-----|-----|-x---|-5-----|-------|-------|-x-x-x-|

II.
   A    C#m     Bm    E
Bahay namin maliit lamang,
 A                     C#m              Bm     E --
pero, pero, pero, pero malinis 'to pati sa kusina...
    A       C#m     Bm         E
Kumain man kami, laging sama-sama..

Guitar1 & 2
|---5-5----4-4----2-2----4-4-|
|---5-5----5-5----3-3--5-5-5-|
|-6-6-6--6-6-6--4-4-4--4-4-4-|
|-7------6------4------0-----|
|-7------4------2------------|
|-5--------------------------|

 A           C#m         Bm           E
Penpenpen de sarapen, de kutsilyo, de almasen..
 A           C#m         Bm           E
Hawhawhaw de karabaw, de karabaw, de batuten..
 A             C#m             Bm             E
Pengeng singko pambili ng puto sa mga tindera ng bitso-bitso,
 A                  C#m                 Bm                  E
Skyflakes, coke500, pahingi ng kiss, pambayad mo sa jeepney kulang pa ng dyes..

guitar1 (do rhythm part)
guitar2
  A        C#m            Bm        E
|----------------------------------------------|
|----------------------------------------------|
|----------------------------------------------|
|-------------------66---------44--------------|  repeat 4x
|---44-77--4-444--77--77--22-55--55/77-55/44-2-|
|-55-------------------------------------------|


CHOR:
   D           E        D                 E
Mahal ko si toyang, pagkat siya'y simple lamang
   D           E        D           E
Kahit namomroblema, basta't kami ay magkasama.. 

guitar1(use major chords)
guitar2
|-------------------------------|
|-------------------------------|
|-7~-77/99999999/7~-77/99999999-| repeat2x
|-7~-77/99999999/7~-77/99999999-|
|-5~-55/77777777/5~-55/77777777-|
|-------------------------------|


III.
     A        C#m     Bm    E
Madalas man kaming walang pera,
   A                        C#m                 Bm    E
Makita lang ang kislap ng kanyang mga mata, ako ay busog na...
   A      C#m     Bm        E --
Tatambay kami sa Tandang Sora...(yo check it!!)

guitar1(do rhythm part)
guitar2
|-----------------------------|-----------------------------|-------------------------------|
|-----------------------------|-----------------------------|-------------------------------|
|-----------------------------|-----------------------------|-------------------------------|
|-2~-2/7~-7h9-6~-6h7-4~-4/6~~-|-2-2/7~-7h9-6~-6h7-4~~/2-2~~-|-2~-2/7~-7h9-6~-6h7-4~-4/6-6~~-|
|-----------------------------|-----------------------------|-------------------------------|
|-----------------------------|-----------------------------|-------------------------------|


ADLIB
guitar1(do rhythm part)
guitar2
|--------------------------------------------------------------------------------------------------|
|--------------------------------------------------------------------------------------------------|
|---------14-16/18~--16-14--14-------------------------------------14---14-14h16---14-14h16---14---|
|-12/14-16----------------16--16-16b-14--14-------------------14-16--16---------16---------16---16-|
|--------------------------------------16--16-14//~------14-16-------------------------------------|
|---------------------------------------------------14-16------------------------------------------|

|----------------------------------------------------------------------|
|--------------------------------------------------17---17-------------|
|----------------------------------14-16-14b-14-16b--16b--16b/14-14~~~-|
|-16b-16-14--14--16b-16-14--14--/16------------------------------------|
|----------16-------------16-------------------------------------------|
|----------------------------------------------------------------------|

BRIDGE:
guitar 1
|--55--44--22--00-|
|--55--55--33-000-|
|-666-666-444-111-| faster beat(tempo) w/ fast strumming
|-7---6---4---2---|
|-7---4---2---2---|
|-5---------------|

.A-C#m - Bm - E
...Eman!!
   A - C#m - Bm - E
..Saman!!

guitar2
|---------------------------------|---------------------------------|
|-5~-5/10~-10h12-9~-9h10-7~-7/9~~-|-5~-5/10~-10h12-9~-9h10-7~/5-5~~-|
|---------------------------------|---------------------------------|
|---------------------------------|---------------------------------|
|---------------------------------|---------------------------------|
|---------------------------------|---------------------------------|

CODA:
     A       C#m       Bm      E
Ti ayat ti maysa nga baro (my love one)
      A     C#m     Bm       E
Ket bala sangna natayna (my love one)
      A       C#m      Bm       E
Uray man uray man uray man (my love one)
    A    C#m      Bm --     E --
Han-u naynga nadonya!! (my love one!!)

guitar1 (do rhythm w/ major chords)
guitar2
|-5~-55-5-|-9~-99-9-|-7~-77-7-|-7~-77-7-|          |-5~-55-5-|-9~-99-9-|-7~-77-7-|-xxxxxx-|
|-5~-55-5-|-9~-99-9-|-7~-77-7-|-9~-99-9-|          |-5~-55-5-|-9~-99-9-|-7~-77-7-|-000000-|
|-6~------|-9~------|-7~------|-9~------| repeat3x |-6~------|-9~------|-7~------|-111111-|
|-7~------|-11~-----|-9~------|---------|   then   |-7~------|-11~-----|-9~------|-222222-|
|---------|---------|---------|---------|          |---------|---------|---------|-222222-|
|---------|---------|---------|---------|          |---------|---------|---------|-xxxxxx-|

IV.
   A    C#m     Bm    E
Bahay namin maliit lamang,
 A                     C#m              Bm     E --
pero, pero, pero, pero malinis 'to pati sa kusina...
    A       C#m     Bm         E
Kumain man kami, laging sama-sama..

guitar1 (do rhythm part)
guitar2
  A        C#m            Bm        E
|----------------------------------------------|
|----------------------------------------------|
|----------------------------------------------|
|-------------------66---------44--------------|  repeat 3x
|---44-77--4-444--77--77--22-55--55/77-55/44-2-|
|-55-------------------------------------------|

 A           C#m         Bm           E
Penpenpen de sarapen, de kutsilyo, de almasen..
 A           C#m         Bm           E
Hawhawhaw de karabaw, de karabaw, de batuten..

guitar1 (do rhythm part)
guitar2
   A   C#m       Bm        E
|-------------------------------------|
|-------------------------------------|
|-------------------------------------|
|-777/------66--------44--------------|  repeat 2x
|-777/-44-77--77-22-55--55/77-55/44-2-|
|-555/--------------------------------|

CHOR2:
guitar1
   D           E        D                 E
Mahal ko si toyang, pagkat siya'y simple lamang
   D           E        D           E
Kahit namomroblema, basta't kami ay magkasama.. oohh!!

guitar2
|--------------|---------------------------------|
|--------------|------15-----15~------17-----17~-|
|----14-11/13~-|-13/14--13/14----14/16--14/16----| 
|-/16----------|---------------------------------| 
|--------------|---------------------------------|
|--------------|---------------------------------|

|---------------------------------|---------------------------------|
|------15-----15~------17-----17~-|------15-----15~------17-----17~-|
|-13/14--13/14----14/16--14/16----|-13/14--13/14----14/16--14/16----|
|---------------------------------|---------------------------------|
|---------------------------------|---------------------------------|
|---------------------------------|---------------------------------|


OUTRO:

Toyang!!
oh toyang!!
please, pakinggan mo 'ko..
i will always be true to you..
..woohh!!
..take it!!...

guitar1 (do rhythm part)
guitar2
|-12b-12b-12b-12b-12b12b~~-12b-12b-12b-12-/14b-14b-14b14b-|
|-12b-12b-12b-12b-12b12b~~--------------------------------|
|---------------------------------------------------------|
|---------------------------------------------------------|
|---------------------------------------------------------|
|---------------------------------------------------------|

|-12------|-----------------|-----------------|---------------------------------|
|---14p12-|-12b-12-10--1010-|-12b-12-10--1010-|-12p10---------------------------|
|---------|----------11-----|----------11-----|------11-9-11-9-7-9--------------|
|---------|-----------------|-----------------|--------------------11-9-11-9-11-|
|---------|-----------------|-----------------|---------------------------------|
|---------|-----------------|-----------------|---------------------------------|

|------------|----------------------|-------------------12------------|
|------------|----------------------|-12b-12b-12b-10-12b--12b-12b-12b-|
|------------|-----9-7-9------9-7-9-|---------------------------------|
|-11-11-11-9-|-7-7--------7-7-------|---------------------------------|
|------------|----------------------|---------------------------------|
|------------|----------------------|---------------------------------|

..we were not too young at all......  wooh!!!
|-----------------|-------------------|------------------|
|---10~-------12~-|----10-12--10------|---10-12--10------|
|-/11----11/13----|-/11---------11-11-|-11---------11-11-| 
|-----------------|-------------------|------------------|
|-----------------|-------------------|------------------|
|-----------------|-------------------|------------------|

|------------------------------------------|-555-------5~~-|
|---1010101010101010101010101010101010p3~~-|-555-------5~~-|
|-11---------------------------------------|-666--12//-6~~-|
|------------------------------------------|-777-------7~~-|
|------------------------------------------|-777-------7~~-|
|------------------------------------------|-555-------5~~-|

-------------------------------------------------------------------------------------------------

thnx2:
    >Senthyx Band
       -joe
       -randz
       -andz
       -pauz
    >SenthyX Zone(sXz)
    >St. Agatha Class s/y 09-10
Tap to rate this tab
 
# A B C D E F G H I J K L M N O P Q R S T U V W X Y Z