Eraserheads - Slo Mo tab

eraserheads_slo mo
anterxiv@yahoo.com

stanza:

e|-----------7---------6---------5---------6-------------------------------------|
B|------5----------5---------5---------5-----------------------------------------|
G|--4h6---6----4h6---6---4h6---4---4h6---6---------------------------------------|
D|-------------------------------------------------------------------------------|
A|-------------------------------------------------------------------------------|
E|-------------------------------------------------------------------------------|

chorus:a--b--2x a-am


  solo: amp drive w/pahaser
e|----------------------------------------------------------------------------------|
B|-----------------12f--12-11-12-11-------------------------------------------------|
G|--11f--11----9\-------------------11-----11^--------------------------------------|
D|----------11-------------------------9\8------------------------------------------|
A|----------------------------------------------------------------------------------|
E|----------------------------------------------------------------------------------|


2nd

            |-trem-|         |-trem------------------------------------------------|
e|------------------------------------7-9p7-9p7------------------------------------|
B|--13f-13^-12-13f--12p10t12--12-14-------------9p7-9p7--7p5-7p5-7f-7-5^-----------|
G|---------------------------------------------------------------------------------|
D|---------------------------------------------------------------------------------|
A|---------------------------------------------------------------------------------|
E|---------------------------------------------------------------------------------|

             |-trem----------|        |-trem---------------------------------------------|
e|--------15-15f--14-15p14-15p14\12-14---7-9--7-9p7-9p7----------------------------------|
B|--14p12------------------------------------------------9p7-9p7-------------------------|
G|---------------------------------------------------------------11p9-11p9-11f---11------|
D|-----------------------------------------------------------------------------11---11^--|
A|---------------------------------------------------------------------------------------|
E|---------------------------------------------------------------------------------------|


legend:
	\ - slide back
	h - hammer
	^ - vibrate
	trem - tremolo

its not a perfect tab mabilisan lng ang kapa at may daya ksi wla n akong oras 
n s tug2an xnsya na..


ppg6'
Tap to rate this tab
 
# A B C D E F G H I J K L M N O P Q R S T U V W X Y Z