Song name
# A B C D E F G H I J K L M N O P Q R S T U V W X Y Z

Eraserheads - Superproxy tab

Super Proxy
by eraserheads

Intro:

Guitar1(heavily distorted)[mp]
*|--------------------------------------|
*|--------------------------------------|
*|----7-7------7-7------7-9-9db-9db-9db-|
*|-9--------9--------9------------------|
*|--------------------------------------|
*|--------------------------------------|
 4x

Guitar2(heavily distorted)[ff]             Guitar1(heavily distorted)[ff]
B5-A5-B5-A5-B5-D5...4X                     B-A-B-A-B-A-D...4x

Verse:

Guitar2(distorted)[mp]                     Guitar1(distorted)[mp]
B5-A5-B5-A5-B5-A5-B5-D5..                  B-A-B-A-B-A-B-D
(through out the whole verse)              (through out the whole verse)     

Refrain:

Guitar1&2(distorted)[f]
G5...hold
A5_G5...hold
F#5_

Chorus:

Guitar2(distorted)[mp]                     Guitar1(distorted)[mp]
D5-E5                                      D-E
D5-E5                                      D-E
F#5_                                       F#5_
                                           F#/G5no.3
Adlib1:

Guitar2(heavily distorted)[mp]             Guitar1(heavily distorted)[mp]
B5-A5-B5-A5-B5-D5...4x                     B-A-B-A-B-D...4x






Guitar Solo Part:

Guitar2(distorted)[f]
B-A-B-A-B-D

Guitar1(distortion w/ effects)[f]
*|----------------------------------|---------------------|----------------------------|
*|-12~-10-12h13-13b-13p12-10--------|-----------11--------|----------------------------|
*|----------------------------12-11-|-12p11h13------13p11-|---------------10-------x-x-|
*|----------------------------------|---------------------|-12--10-12-10------12---x-x-|
*|----------------------------------|---------------------|------------------------x-x-|
*|----------------------------------|---------------------|------------------------x-x-|

*|---------------------------------|----------------------------------------|-10h11----------|
*|-12~-10-12h13/15-13p12-----------|----------------------------------------|-------10p8h9/+-|
*|------------------------14-12p11-|-12p11h12/14-12p11---------------10-----|----------------|
*|---------------------------------|-------------------12~p11h12p10------12-|----------------|
*|---------------------------------|----------------------------------------|----------------|
*|---------------------------------|----------------------------------------|----------------|




Coda:

Guitar1(heavily distorted)[mp]

*|--------------------------------------|
*|--------------------------------------|
*|----7-7------7-7------7-9-9db-9db-9db-|
*|-9--------9--------9------------------|
*|--------------------------------------|
*|--------------------------------------|
 4x

Guitar2(heavily distorted)[ff]             Guitar1(heavily distorted)[ff]
B5-A5-B5-A5-B5-D5...4X                     B-A-B-A-B-A-D...4x

Rap Part:

Guitar1&2(heavily distorted)[f]
B-A-B-A-B-D
end.....



Ledger:

h               hammer on
p               pull off
b               bend
db              downward bend
/               slide
~               let ring
/+              slide to nowhere
[mp]            moderate volume
[f]             loud volume
[ff]            loud as hell
Guitar1         Marcus' guitar
Guitar2         Ely's guitar

may mali?
paki post na lang po sa FB: bwahaha_13@yahoo.com
thanks!!!
please rate!!!
enjoy!!!happy playing!!!
Tap to rate this tab
 
# A B C D E F G H I J K L M N O P Q R S T U V W X Y Z