Song name
# A B C D E F G H I J K L M N O P Q R S T U V W X Y Z

Eraserheads - Minsan tab

This is my own version rhythm part of the song "Minsan" by E-heads.

Intstrument Used: Acoustic Guitar
Tuning: D Tuned

1st and 2nd verses:
                                        *|for this part listen for timing
D ---2---|---2---|-------|--3----|---2---|---3---|---2---|---0---|---2---|
A ---3---|---2---|-------|--3----|---3---|---3---|---3---|---3---|---3---|
F ---2---|---2---|-------|--3----|---2---|---2---|---2---|---2---|---2---|
C -------|-------|---2---|--3--5-|-------|-------|-------|-------|-------|
A -------|xxxxxxx|---2---|--3--5-|-------|-------|-------|-------|-------|
D xxxxxxx|xxxxxxx|xxxxxxx|--3----|xxxxxxx|xxxxxxx|xxxxxxx|xxxxxxx|xxxxxxx|
Repeat twice for each verse....

Note: for the small riffs on verses u can do the same riffs from the first 2 chords, 
which is the riff from the "*", but don't change the chords just do the riffs...

Chorus:

D ---2---|---2---|--3----|--3----|---2---|--3----|--5----|
A ---2---|---1---|--3----|--3----|---3---|--3----|--5----|
F ---2---|---2---|--3-4--|--3----|---2---|--3----|--5-6--|
C -------|-------|--3---5|--3---5|-------|--3---5|--5---7|
A xxxxxxx|xxxxxxx|--3---5|--3---5|-------|--3---5|--5---7|
D xxxxxxx|xxxxxxx|--3----|--3----|xxxxxxx|--3----|--5----|

D --2----|--3-----|
A --2----|--3-----|
F --2----|--3--4--| Repeat this tabs (x2)
C --2--4-|--3----5| <---only repeat this not the whole chorus..
A --2--4-|--3----5|
D --2----|--3-----|

Then....
                           (Pause)
D ---2---|-------|--3-----|--3----|
A ---3---|---2---|--3-----|--3----|
F ---2---|---2---|--3--4--|--3----|
C -------|---2---|--3----5|--3--5-|
A -------|-------|--3----5|--3--5-|
D xxxxxxx|xxxxxxx|--3-----|--3----|

Solo Part Rhythm:

D ---2---|---2---|---2---|--3-----|--3----|---2---|--3----|--5-----|
A ---3---|---2---|---1---|--3-----|--3----|---3---|--3----|--5-----|
F ---2---|---2---|---2---|--3--4--|--3----|---2---|--3----|--5--6--|
C -------|-------|-------|--3----5|--3--5-|-------|--3--5-|--5----7|
A -------|xxxxxxx|xxxxxxx|--3----5|--3--5-|-------|--3--5-|--5----7|
D xxxxxxx|xxxxxxx|xxxxxxx|--3-----|--3----|xxxxxxx|--3----|--5-----|

D --2----|--3-----|
A --2----|--3-----|
F --2----|--3--4--| Repeat this tabs (x2)
C --2--4-|--3----5| <---only repeat this not the whole adlib..
A --2--4-|--3----5|
D --2----|--3-----|

Then....
                           (Pause)
D ---2---|-------|--3-----|--3----|
A ---3---|---2---|--3-----|--3----|
F ---2---|---2---|--3--4--|--3----|
C -------|---2---|--3----5|--3--5-|
A -------|-------|--3----5|--3--5-|
D xxxxxxx|xxxxxxx|--3-----|--3----|

Adlib:

D --|-------|-------|--2-----|--5-----|-------|-------|-------|-------|
A -2|-------|-------|--2-----|--5-----|-------|-------|-------|---2---|
F -2|--1----|-------|--2-----|--5-----|--1----|-------|---1---|---2---|
C -2|----2--|---2---|--2--4--|--5--7--|---2---|---2---|---0---|---2---|
A --|----2--|---2---|--2--4--|--5--7--|---2---|---2---|---2---|-------|
D --|-------|-------|--2-----|--5-----|-------|-------|xxxxxxx|xxxxxxx|

D -------|-------|-------|--2----|
A ---1---|-------|---1---|--2--4-|
F ---2---|---1---|---2---|--2--4-|
C ---2---|---2---|---2---|--2--4-|
A -------|---2---|-------|--2----|
D -------|-------|-------|xxxxxxx|

D --4----|--5----|
A --4----|--5----|
F --4----|--5-6--| Repeat this (x2)
C --4--6-|--5--7-| <----Strum each tabs then hold...
A --4--6-|--5--7-|
D --4----|--5----|

Then....
D -------|--2----|--5----|--5----|
A -------|--2--4-|--5----|--5----|
F ---1---|--2--4-|--5-6--|--5----|
C ---2---|--2--4-|--5--7-|--5--7-|
A ---2---|--2----|--5--7-|--5--7-|
D -------|xxxxxxx|--5----|--5----|

Ending with chord: E-Em-F#m-Am-E...

Hope You enjoy...
Tap to rate this tab
 
# A B C D E F G H I J K L M N O P Q R S T U V W X Y Z