Song name
# A B C D E F G H I J K L M N O P Q R S T U V W X Y Z

Eraserheads - Sembreak chords

Highlighted       Show chord diagrams
Add me on FB fierce_angel005@yahoo.com
Sembreak

Verse 1
G#  F x8
e|----0------|
G|----0------|
B|----0------|
D|----3------|
A|----3------|
E|----x------|

Em C(x2)

G#  F x4
E  C  D

Chorus:
e|----x------|
G|----x------|
B|----5------|
D|----5------|
A|----3------|
E|----x------|

G#-F  x4

e|----x------|
G|----x------|
B|----6------|
D|----7------|
A|----7------|
E|----5------|

e|----x------|
G|----5------|
B|----6------|
D|----6------|
A|----4------|
E|----x------|

e|----x------|
G|----x------|
B|----7------|
D|----7------|
A|----5------|
E|----x------|
verse 2
mula dito hangang 
e|----x------|
G|----x------|
B|----4------|
D|----4------|
A|----2------|
E|----x------|

e|----x------|
G|----x------|
B|----5------|
D|----5------|
A|----3------|
E|----x------|
dito x4 ultin tapos

e|----x------|
G|----x------|
B|----7------|
D|----7------|
A|----5------|
E|----x------|

e|----x------|
G|----x------|
B|----x------|
D|----7------|
A|----7------|
E|----5------|

e|----x------|
G|----x------|
B|----x------|
D|----5------|
A|----5------|
E|----3------|

e|----x------|
G|----x------|
B|----x------|
D|----3------|
A|----3------|
E|----1------|

Em C D


G# F x3

Em C D

Repeat Chorus


__________________________________________________________________________________
tapos un na un  kayo na lang bahala sa  strumming  at nga pala kinuha ko to sa 
guitartutee habang na play ung vid etoh link :
http://www.youtube.com/watch?v=4gY1_XlYI54
para magka idea kayo
Tap to rate this tab
 
# A B C D E F G H I J K L M N O P Q R S T U V W X Y Z