Song name
# A B C D E F G H I J K L M N O P Q R S T U V W X Y Z

Eraserheads - Torpedo tab

Help us improve GuitareTab! Take a short survey!
=================================================

                   ~TORPEDO~

=================================================

Song: Torpedo
Artist: Eraserheads




Intro:

e|-------2----2----2----2----2----2----2----2-----|
B|---0-----0----0----0----0----0----0----0----0---|
G|------------------------------------------------|
D|-4---4-----4----4----4----4----4----4----4----4-|
A|------------------------------------------------|
E|------------------------------------------------|

Verse 1:

e|-2-----2-----2-----2----|-------1-----1-----1-----1-------|
B|---0-----0-----0-----0--|---2-----2-----2-----2-----2---2-|
G|------------------------|---------------------------------|
D|-----4-----4-----4-----4|-3---3-----3-----3-----3-----3---|
A|------------------------|---------------------------------|
E|------------------------|---------------------------------|
  Pasenxa na...            Kung ako ay...


e|-------0-----0----------0------2-------|
B|---0-----0-----0----0------0-----0---0-|
G|----------------------1----------------|
D|-2---2-----2----1/2----------2-----2---|
A|---------------------------------------|
E|---------------------------------------|
 di nag...


e|---------2----2----2----2------|
B|-----0-----0----0----0----0---0|
G|-------------------------------|
D|-2/4---4-----4----4----4----4--|
A|-------------------------------|
E|-------------------------------|
  sasalita


e|-2-----2-----2-----2------|-------1-----1-----1-----1-------|
B|---0-----0-----0-----0---0|---2-----2-----2-----2-----2---2-|
G|--------------------------|---------------------------------|
D|-----4-----4-----4-----4--|-3---3-----3-----3-----3-----3---|
A|--------------------------|---------------------------------|
E|--------------------------|---------------------------------|
  Hindi ko kayang...             sabihin...


e|-------0-----0----------0------2-------|
B|---0-----0-----0----0------0-----0---0-|
G|----------------------1----------------|
D|-2---2-----2----1/2----------2-----2---|
A|---------------------------------------|
E|---------------------------------------|
  aking...


e|---------2----2----2----2--------2.s.--|
B|-----0-----0----0----0----0------4.t.--|
G|---------------------------------4.r.--|
D|-2/4---4-----4----4----4----4----4.u.--|
A|---------------------------------2.m.--|
E|---------------------------------------|
  nadarama


Chorus:


e|----------------|
B|----------------|
G|----------------|
D|----------------|
A|-6-6-6--4-2-4---|
E|--------------4-|
 |                 (Strum)
e|----------------|--x----------|-x----------|-x----------|-x----------|
B|----------------|--x----------|-x----------|-x----------|-x----------|
G|----------------|--x----------|-9----------|-x----------|-3----------|
D|----------------|--6----------|-9----------|-6----------|-4----------|
A|----------------|--6----------|-7----------|-6----------|-4----------|
E|----------------|--4----------|-x----------|-4----------|-2----------|
                   huwag m na..   Ako ay..    Loob..      Tumanggi..


e|-x-------|-x--------|-x---------|-x---------| P
B|-x-------|-x--------|-x---------|-x---------| A
G|-x-------|-9--------|-x---------|-3---------| U
D|-6-------|-9--------|-6---------|-4---------| S
A|-6-------|-7--------|-6---------|-4---------| E
E|-4-------|-x--------|-4---------|-2---------|
  walang.. Ako ay..   Torpe...    Hinde/Tabi-tabi...



Verse 2:

Strum

e|-2----------|-4-------4--|-----------|-2----------|
B|-4----------|-6-------5--|-----------|-4----------|
G|-4----------|-6-------6--|-1---------|-4----------|
D|-4----------|-6-------6--|-2-------2-|-4----------|
A|-2----------|-4-------4--|-2-------2-|-2----------|
E|------------|------------|-----------|------------|
pasenxa na..   ikaw ay..    Sanang..    Pagusapan pa...



e|-2----------|-4-------4--|-----------|-2----------|
B|-4----------|-6-------5--|-----------|-4----------|
G|-4----------|-6-------6--|-1---------|-4----------|
D|-4----------|-6-------6--|-2-------2-|-4----------|
A|-2----------|-4-------4--|-2-------2-|-2----------|
E|------------|------------|-----------|------------|
kung gus2 mo.. manood..     may bago.. palabas...





Solo: ( guitar chords pattern: B, C#-C#m, E-Em, B)
tempo: moderate
~repeat 2x
                 B

e|----------15------15------15--------|
B|----12-------12------12------12--12-|
G|-11----11------11------11------11---|
D|------------------------------------|
A|------------------------------------|
E|------------------------------------|

              c#-c#m

e|----------14------14------14--------|
B|----12-------12------12------12--12-|
G|-10----10------10------10------10---|
D|------------------------------------|
A|------------------------------------|
E|------------------------------------|

               E-Em

e|--------12-----12-----12------------|
B|---12------12-----12-----12---12----|
G|-9---9-------9------9-------9-------|
D|------------------------------------|
A|------------------------------------|
E|------------------------------------|

                B

e|-------7------7------7--------------|
B|---5-----5------5------5---5--------|
G|-8---8-----8------8------8----------|
D|------------------------------------|
A|------------------------------------|
E|------------------------------------|


Chorus:


e|----------------|
B|----------------|
G|----------------|
D|----------------|
A|-6-6-6--4-2-4---|
E|--------------4-|
 |                 (Strum)
e|----------------|--x----------|-x----------|-x----------|-x----------|
B|----------------|--x----------|-x----------|-x----------|-x----------|
G|----------------|--x----------|-9----------|-x----------|-3----------|
D|----------------|--6----------|-9----------|-6----------|-4----------|
A|----------------|--6----------|-7----------|-6----------|-4----------|
E|----------------|--4----------|-x----------|-4----------|-2----------|
                   huwag m na..   Ako ay..    Loob..      Tumanggi..


e|-x-------|-x--------|-x---------|-x---------| P
B|-x-------|-x--------|-x---------|-x---------| A
G|-x-------|-9--------|-x---------|-3---------| U
D|-6-------|-9--------|-6---------|-4---------| S
A|-6-------|-7--------|-6---------|-4---------| E
E|-4-------|-x--------|-4---------|-2---------|
  walang.. Ako ay..   Torpe...    Hinde/Tabi-tabi...



Verse 3:

Strum

e|-2----------|-4-------4--|-----------|-2----------|
B|-4----------|-6-------5--|-----------|-4----------|
G|-4----------|-6-------6--|-1---------|-4----------|
D|-4----------|-6-------6--|-2-------2-|-4----------|
A|-2----------|-4-------4--|-2-------2-|-2----------|
E|------------|------------|-----------|------------|
pasenxa na..   naiiyak..    talaga..    kuha ko...


                B                                 c#-c#m

e|----------15------15------15--------|---------14------14------14--------|
B|----12-------12------12------12--12-|---12-------12------12------12--12-|
G|-11----11------11------11------11---|10----10------10------10------10---|
D|------------------------------------|-----------------------------------|
A|------------------------------------|-----------------------------------|
E|------------------------------------|-----------------------------------|
  Di ko mapigil                          Ang aking damdamin...

               E-Em                                 B

e|--------12-----12-----12------------|-------7------7------7--------------|
B|---12------12-----12-----12---12----|---5-----5------5------5---5--------|
G|-9---9-------9------9-------9-------|-8---8-----8------8------8----------|
D|------------------------------------|------------------------------------|
A|------------------------------------|------------------------------------|
E|------------------------------------|------------------------------------|
alis k na.. 2mu2nog n...                    ang beeper mo

               
            B                                 c#-c#m

e|----------15------15------15--------|---------14------14------14--------|
B|----12-------12------12------12--12-|---12-------12------12------12--12-|
G|-11----11------11------11------11---|10----10------10------10------10---|
D|------------------------------------|-----------------------------------|
A|------------------------------------|-----------------------------------|
E|------------------------------------|-----------------------------------|
  Pasenxa na..                  haaaa..haaaa

               E-Em                                 B

e|--------12-----12-----12------------|-------7------7------7--------------|
B|---12------12-----12-----12---12----|---5-----5------5------5---5--------|
G|-9---9-------9------9-------9-------|-8---8-----8------8------8----------|
D|------------------------------------|------------------------------------|
A|------------------------------------|------------------------------------|
E|------------------------------------|------------------------------------|
          ooh.....              woooh...  ooooooh...

       B                                 c#-c#m

e|----------15------15------15--------|---------14------14------14--------|
B|----12-------12------12------12--12-|---12-------12------12------12--12-|
G|-11----11------11------11------11---|10----10------10------10------10---|
D|------------------------------------|-----------------------------------|
A|------------------------------------|-----------------------------------|
E|------------------------------------|-----------------------------------|
  turut tuh tuh.... 

               E-Em                                 B

e|--------12-----12-----12------------|-------7------7------7--------------|
B|---12------12-----12-----12---12----|---5-----5------5------5---5--------|
G|-9---9-------9------9-------9-------|-8---8-----8------8------8----------|
D|------------------------------------|------------------------------------|
A|------------------------------------|------------------------------------|
E|------------------------------------|------------------------------------|
                    wuhoooo... oooh....

                                                ( moderately slow )
e|--------12----12------13----13-------|-----------------------------|
B|---12------12----12-----12----12--12-|----------12-----------------|
G|-9----9------9-----9------9-----9----|-----------------------------|
D|-------------------------------------|-13h14-13----14-13h14-13/~9--|
A|-------------------------------------|-----------------------------|
E|-------------------------------------|-----------------------------|


                                    ~E N D~


                         MABUHAY ANG PINAS!~ Wohoooo!

Related for Torpedo tab