Song name
# A B C D E F G H I J K L M N O P Q R S T U V W X Y Z

Eraserheads - Ang Huling El Bimbo tab

Ang Huling El Bimbo
Eraserheads

Tabbed by: sirapsp
23/2/13


nakita ko to sa The Reunion. kaso piano gamit nila
so tinranspose ko sa gitara xD

            G                      A7
e|-------------------3------3---------------0--|
B|--0-1-2-3----------3--------3--2----------2--|
G|----------------0----------------------0-----|
D|------------------------------------2--------|
A|-------------2-------------------0-----------|
E|----------3----------------------------------|

           C                       G
e|--3---------------0-------3---------------3--|
B|----2--1----------1---------1--0----------0--|
G|---------------0-----------------------0-----|
D|------------2-----------------------0--------|
A|---------3-----------------------------------|
E|---------------------------------3-----------|


hi nga pala sa IV-St.Fulgentius 12-13 
mahal na mahal ko kayo. hihi <3
Tap to rate this tab
# A B C D E F G H I J K L M N O P Q R S T U V W X Y Z