Guitaretab - guitar tabs
Song name
# A B C D E F G H I J K L M N O P Q R S T U V W X Y Z

Eraserheads - Pare Ko tab

PARE KO BY ERASERHEADS
Tabbed by: Ralph_Rakizta
Email: fast_break20@yahoo.com.ph

ADLIB:

2min:12sec

e|----15-----------12-15-15---15/17-17--19-17----15-17--12-15--10-12-7-------|
B|----------12-15------------------------------------------------------------|
G|---------------------------------------------------------------------------|
D|---------------------------------------------------------------------------|
A|---------------------------------------------------------------------------|
E|---------------------------------------------------------------------------|
[ Tab from: http://www.guitaretab.com/e/eraserheads/35456.html ]
e|---------------------------------------------------------------------------|
B|---10-8----8-8---8-10b12----8-10-8---------8-10----------15----------------|
G|---------9-----9----------9--------9-7---9--------12h14-----12h14----------|
D|---------------------------------------------------------------------------|
A|---------------------------------------------------------------------------|
E|---------------------------------------------------------------------------|

e|---------------------------------------------------------------------------|
B|---15b1715b17-15----------------------------------------------------------|
G|---------------------------------------------------------------------------|
D|---------------------------------------------------------------------------|
A|---------------------------------------------------------------------------|
E|---------------------------------------------------------------------------|



| /  slide up
| \  slide down
| h  hammer-on
| p  pull-off
| ~  vibrato
| +  harmonic
| x  Mute note
===============================================================================
Related for Pare Ko tab