Song name
# A B C D E F G H I J K L M N O P Q R S T U V W X Y Z

Eraserheads - Minsan tab

 Artist:    Eraserheads
 Song:      Minsan
 Tabbed by: Gideon 

  |-------------------------------------------------------------|
  |-------------------------------------------------------------|
  |-------------------------------------------------------------|
  |-------------4---------------------------------5s7-5-5-7-7s8-|
  |-1s5-5-5-7-5---5-----------------------------5---------------|
  |-----------------7s2-2-5-7s8-8-8-8-8-8-7-5-3-----------------|

  |-------------------------------------------------------------|
  |---------------------------------------------11-11h12p11-14--|
  |------------------------11h12p11----------14-----------------|
  |-8-10-10s12-12-12-14-12----------14-12-12--------------------|
  |-------------------------------------------------------------|
  |-------------------------------------------------------------|

  |----------------------14-------14-------15-------15----------|
  |-12-11-------------------14-------14-------15-------15-------|
  |-------12-9-----------------14-------14-------16-------16----|
  |------------12-11-9-7----------------------------------------|
  |-------------------------------------------------------------|
  |-------------------------------------------------------------|

  |-14-------14-------15-------15-15----------------------------|
  |----14-------14-------15----------17-17s19-17h19-17-15-14-17-|
  |-------14-------14-------16----------------------------------|
  |-------------------------------------------------------------|
  |-------------------------------------------------------------|
  |-------------------------------------------------------------|

  |-------------------------------------------------------------|
  |-15p14-15----------------------------------------------------|
  |----------15-12-11h12-11~------------------------------------|
  |-------------------------------------------------------------|
  |-------------------------------------------------------------|
  |-------------------------------------------------------------|


  This is for my Band : Square - Circle
  I Would like to Greet my Bandmate : Arvin , Kevin , Paulo And James
  and Also my other Friends : Merviner , Martin , Paul , Eric , And Epraim

  = ) 

Tap to rate this tab
 
# A B C D E F G H I J K L M N O P Q R S T U V W X Y Z