Song name
# A B C D E F G H I J K L M N O P Q R S T U V W X Y Z

Eraserheads - Easy Ka Lang tab

Eraserheads
Easy Ka Lang (Intro Only)
Ultraelectromagneticpop
1993 BMG Records
Track 1
Key: C
submitted by: paramore_fans@yahoo.com

Part 1:
e|----------------------------|
B|----------------------------|
G|----------------------------|
D|-----------------------1--0-| (x4)
A|-3---0-3----0-3----0-3------|
E|---3------3------3----------|

Part 2:
e|------------------------------|----------------------------|
B|------------------------------|----------------------------|
G|------------------------------|----------------------------|
D|-10--10--9-8-7--7-7-7-7-7-8-9-|-8--8--7-6-5--5-5-5-5-5-6-7-|
A|-10--10--9-8-7--7-7-7-7-7-8-9-|-8--8--7-6-5--5-5-5-5-5-6-7-|
E|--8---8--7-6-5--5-5-5-5-5-6-7-|-6--6--5-4-3--3-3-3-3-3-4-5-|
                x3                             x2
Tap to rate this tab
# A B C D E F G H I J K L M N O P Q R S T U V W X Y Z