Song name
# A B C D E F G H I J K L M N O P Q R S T U V W X Y Z

Eraserheads - Balikbayan Box tab

Help us improve GuitareTab! Take a short survey!
Song: Balikbayan Box
Artist/Band: Eraserheads
Submitted by: bogey

h - hammer
p - pull off

E|-----11---11---11-------11---11---11----------|
B|--------7----7----7h8------8-----8----8p7-----|
G|--7-------------------9--------------------7--|
D|----------------------------------------------|
A|----------------------------------------------|
E|----------------------------------------------|

E|-----11---11---11------11-----11-------11---------|
B|--------7----7----7h8-----8-------8-------8p7-----|
G|--7------------------9------9--------9---------7--|
D|--------------------------------------------------|
A|--------------------------------------------------|
E|--------------------------------------------------|

100 % sure ako dito! I-rate nyo na lang!
Related for Balikbayan Box tab