Song name
# A B C D E F G H I J K L M N O P Q R S T U V W X Y Z

Eraserheads - Shirley tab

Eraserheads
Shirley (Intro only)
Ultraelectromagneticpop
1993 BMG Records
Key: A

Piano intro: Part 1
e|-7h9----7h9----12-10-9-------10-9-------|
B|-----10-----10---------10---------12-10-|
G|---------------------------9------------|
D|----------------------------------------| (x2)
A|----------------------------------------|
E|----------------------------------------|

Part 2:
e|--------------|
B|--------------|
G|-----6~----7~-|
D|-7~--6~-4~-7~-| (x2)
A|-7~--4~-4~-5~-|
E|-5~-----2~----|
Tap to rate this tab
 
# A B C D E F G H I J K L M N O P Q R S T U V W X Y Z