Song name
# A B C D E F G H I J K L M N O P Q R S T U V W X Y Z

Eric Andersen - More Often Than Not tab

Artist:	Eric Andersen
Song:	More Often than Not
Album:	Blue River

Tabbed By: DJ Banks

NOTE: Each time I have two chords shown repeated together, it means to strum down and 
up!

This is how I play it! Add more style and licks once you get the rhythm down!

(/) Slide Up  (\) Slide Down  (h) Hammer On  (p) Pull Off  (b) Bend (r) Release (v) Vibrato

**Intro**

E|--------------------------------1-------------------3--3----------3--3-------|
B|-----------------------3--------2-------------------0--0----------0--0-------|
G|--------------0-----------0-----1-------------------0--0----------0--0-------|
D|-----------2--------0--------0---------0--0h2p0-----0--0--0h2-----0--0-------|
A|--0--2--3--------1----------------------------------2--2----------2--2--0h2--|
E|-------------------------------------------------3-------------3-------------|

**Verse**

Had I not been,		   quite far enough

E|-----3--3-------3--3-----3--3-----0--0-----0--0-------0--0-----0--0----------|
B|-----0--0-------0--0-----0--0-----3--3-----0--0-------0--0-----0--0----------|
G|-----0--0-------0--0-----0--0-----0--0-----0--0-------0--0-----0--0----------|
D|-----0--0-------0--0-----0--0-----0--0-----2--2-------2--2-----2--2----------|
A|-----2--2--0h2--2--2-----2--2-----0--0-----2--2--0h2--2--2-----2--2--0h2-----|
E|--3-------------------3--------2--------0-------------------0----------------|

	     How many times do you gotta die now	          Hey how many,

E|-----0--0-------0--0-----2--2-----2--2-----3--3------------3--3----------3--3--|
B|-----1--1-------1--1-----3--3-----3--3-----0--0------------0--0----------0--0--|
G|-----0--0-------0--0-----2--2-----2--2-----0--0------------0--0----------0--0--|
D|-----2--2--0h2--2--2--0--------------------0--0--0h2p0-----0--0----------0--0--|
A|--3----------------------------0-----------2--2------------2--2--0h2-----2--2--|
E|----------------------------------------3---------------3-------------3--------|

	     	        Sets has it been,

E|---------3--3-----3--3-----0--0-----0--0-------0--0-----0--0----------|
B|---------0--0-----0--0-----3--3-----0--0-------0--0-----0--0----------|
G|---------0--0-----0--0-----0--0-----0--0-------0--0-----0--0----------|
D|---------0--0-----0--0-----0--0-----2--2-------2--2-----2--2----------|
A|----0h2--2--2-----2--2-----0--0-----2--2--0h2--2--2-----2--2--0h2-----|
E|---------------3--------2--------0-------------------0----------------|

        Not another one,      AW NO!

E|-----0--------0-----0--------0--0----0----0----0----|
B|-----1--------1-----3--------3--1----1----1----1----|
G|-----0--------0-----0--------0--2----2----2----2----|
D|-----2--------2-----0--------0--2----2----2----2----|
A|--3--------------2--------------0----0----0----0----|
E|--------------------------------0----0----0----0----|

**Chorus**

 	       And would you believe,    that it happens more often than not

E|-----------0--0-------0--0-----2--2-----2--2-----3--3-----0--0-----0--0-------|
B|-----------1--1-------1--1-----3--3-----3--3-----0--0-----3--3-----0--0-------|
G|-----------0--0-------0--0-----2--2-----2--2-----0--0-----0--0-----0--0-------|
D|-----------2--2--0h2--2--2--0--------------------0--0-----0--0-----2--2-------|
A|--0--2--3----------------------------0-----------2--2-----0--0-----2--2--0h2--|
E|----------------------------------------------3--------2--------0-------------|

       Here's to all the people,    That I'm not with tonight

E|-----0--0-------0--0-----2--2-----2--2-----3--3-----0--0-----0--0-------|
B|-----1--1-------1--1-----3--3-----3--3-----0--0-----3--3-----0--0-------|
G|-----0--0-------0--0-----2--2-----2--2-----0--0-----0--0-----0--0-------|
D|-----2--2--0h2--2--2--0--------------------0--0-----0--0-----2--2-------|
A|--3----------------------------0-----------2--2-----0--0-----2--2--0h2--|
E|----------------------------------------3--------2--------0-------------|

			     Where ever they are

E|-----0--0-------0--0-----2-------2---------------------3--3------------3--3---------|
B|-----1--1-------1--1-----3-------3---------------------0--0------------0--0---------|
G|-----0--0-------0--0-----2-------2--------0--0h2p0-----0--0------------0--0---------|
D|-----2--2--0h2--2--2--0--------------------------------0--0--0h2p0-----0--0---------|
A|--3----------------------------------------------------2--2------------2--2---------|
E|----------------------------------------------------3---------------3---------------|

Well I rode in, to town last night, tired
Would you believe I would like to cry now
Saw my lady, laying there with a man
Not another one, aw no!

Would you believe that it happens more often than not
Heres to all the ladys that im not with tonight
Where ever they are.

So I went on - stumblin' - to the town
How many times do you gotta try now
Someone said, that she would love me
Not another one, aw no.

And would you believe that it happens more often than not
Heres to all the ladys that fell for me tonight
Whoever they are.

So pass that bottle, now give it here
So many reasons to drink it dry now
Numb my pain, maybe even kill me
Hey have another one, lets go!

And then you believe that it happens more often than not (yeah!)
Here to all the bottles I've drunk in my time
Whatever they were.
Tap to rate this tab
 
# A B C D E F G H I J K L M N O P Q R S T U V W X Y Z