Song name
# A B C D E F G H I J K L M N O P Q R S T U V W X Y Z

Eric Ayotte - Mr And Mrs Everyone tab

Listen for strumming pattern.


e----3----3----3----------3----3----3-----------3----3----3------|
B----3----3----3----------3----3----3-----------3----3----3------|
G----0----0----0----------0----0----2-----------0----0----0------|
D----0----0----2----------2----0----2-----------0----0----2------|
A----2----0----2----------3----2----0-----------2----0----3------|
E----3----2----0--------------------------------3----2-----------|


e----3----3----3-------------3---|
B----3----3----3-------------3---|
G----0----0----0-------------0---|
D----0----0----2-------------2---|
A----2----0----2----0h2p0----2---|
E----3----2----0-------------0---|


e----3----3----3----------3----3----3-----------3----3----3------|
B----3----3----3----------3----3----3-----------3----3----3------|
G----0----0----0----------0----0----2-----------0----0----0------|
D----0----0----2----------2----0----2-----------0----0----2------|
A----2----0----2----------3----2----0-----------2----0----3------|
E----3----2----0--------------------------------3----2-----------|


e----3----3----3-------------3--------------------3-------------3----|
B----3----3----3-------------3--------------------3-------------3----|
G----0----0----0-------------0--------------------0-------------0----|
D----0----0----2-------------2--------0--0h2p0----2--------0----2----|
A----2----0----2----0h2p0----2----0h2-------------2----0h2------2----|
E----3----2----0-------------0--------------------0-------------0----|


e----3--------------------|
B----3--------------------|
G----0----1--7--1--9--7---|
D----2----2--7--2--9--7---|
A----3----2--5--2--7--5---|
E---------0-----0---------|   x 3


e---3-------------3--------------------3-------------3----|
B---3-------------3--------------------3-------------3----|
G---0-------------0--------------------0-------------0----|
D---2-------------2--------0--0h2p0----2--------0----2----|
A---2----0h2p0----2----0h2-------------2----0h2------2----|
E---0-------------0--------------------0-------------0----|

e----3----3----3----------3----3----3-----------3----3----3----|
B----3----3----3----------3----3----3-----------3----3----3----|
G----0----0----0----------0----0----2-----------0----0----0----|
D----0----0----2----------2----0----2-----------0----0----2----|
A----2----0----2----------3----2----0-----------2----0----3----|
E----3----2----0--------------------------------3----2---------|

e----3----3----3-------------3---|
B----3----3----3-------------3---|
G----0----0----0-------------0---|
D----0----0----2-------------2---|
A----2----0----2----0h2p0----2---|
E----3----2----0-------------0---|

e----3----3----3----------3----3----3-----------3----3----3----|
B----3----3----3----------3----3----3-----------3----3----3----|
G----0----0----0----------0----0----2-----------0----0----0----|
D----0----0----2----------2----0----2-----------0----0----2----|
A----2----0----2----------3----2----0-----------2----0----3----|
E----3----2----0--------------------------------3----2---------|

e---3-------------3--------------------3-------------3----|
B---3-------------3--------------------3-------------3----|
G---0-------------0--------------------0-------------0----|
D---2-------------2--------0--0h2p0----2--------0----2----|
A---2----0h2p0----2----0h2-------------2----0h2------2----|
E---0-------------0--------------------0-------------0----|

e----3--------------------|
B----3--------------------|
G----0----1--7--1--9--7---|
D----2----2--7--2--9--7---|
A----3----2--5--2--7--5---|
E---------0-----0---------|   x 3

e---3-------------3--------------------3-------------3----|
B---3-------------3--------------------3-------------3----|
G---0-------------0--------------------0-------------0----|
D---2-------------2--------0--0h2p0----2--------0----2----|
A---2----0h2p0----2----0h2-------------2----0h2------2----|
E---0-------------0--------------------0-------------0----|

e----3----3----3----------3----3----3-----------3----3----3----|
B----3----3----3----------3----3----3-----------3----3----3----|
G----0----0----0----------0----0----2-----------0----0----0----|
D----0----0----2----------2----0----2-----------0----0----2----|
A----2----0----2----------3----2----0-----------2----0----3----|
E----3----2----0--------------------------------3----2---------|   x 3

e---3----3----3---|
B---3----3----3---|
G---0----0----0---|
D---0----0----2---|
A---2----0----2---|
E---3----2----0---| x 2


http://www.plan-it-x.org/artist/eric-ayotte/
Tap to rate this tab
# A B C D E F G H I J K L M N O P Q R S T U V W X Y Z