Song name
# A B C D E F G H I J K L M N O P Q R S T U V W X Y Z

Eric Bachmann - So Long Savannah chords

Eric Bachmann - So long Savannah

This is more just the chord structure not the exact picking,the single notes are
integrated in the picking. hope it helps!


Intro (picked) 4x

e|---------0-----0---0p3----|
b|--3-----3-3----3----------|
g|--0------------0----------|
D|--0-p2---------0-p2-------|
A|--x---2--------x----------|
E|--3------------3----------|

Break(picked)
		  3x then
e|-------0------0-------0-----0--------|
b|-------3--s---8-------3-----3--------|
g|-------0--s---0-------0-----0--------|
D|-------2------7-------x-----x--------|
A|-------x--s---x-------2-2---2--------| 2x
E|-------3--s---8-------3---0-3--------|

Verse(picked)

e|--0---0-----0---0---0-------------------------------------------------------|
b|--0---3--s--8---3---3-------------------------------------------------------|
g|--0---0-----0---0---2-------------------------------------------------------|
D|--2---2--s--7---0---0-------------------------------------------------------|
A|--2---x-----x---2---x-------------------------------------------------------|
E|--0---3--s--8---3---2-------------------------------------------------------|
    Em  G     C  G   D

Em           G            C            G       D
So long Savannah Ive been leaving you too long
A coward Ive been wasting time finding reasons to hang on
With powder ropes I hung my hopes safe and sound from failures fall
The kind of friend who does you in ainít no friend at all

Break 4x

Middle(picked)

e|--0-h3---0-h2s3---0----|
b|--3------0--------8----|
g|--0------0--------0----|
D|--0------2--------7----|
A|--2------2--------x----|
E|--3------0--------8----|

How far up the river did you slither did you crawl
Before muddy waters took you under the salt
Mines on the delta to the shelter safe from harm
Cooing in the driving rain running back into your mamas arms

Break 4x

Sometimes there are no reasons and sometimes there is no feeling at all
Some come front in believing they cant leave behind the place they fall
So farewell savannah though it hurts to leave you so
You may be one fine lover friend but you could never be my home

Break 4x

End on G

http://www.ericbachmann.com/
Tap to rate this tab
 
# A B C D E F G H I J K L M N O P Q R S T U V W X Y Z