Song name
# A B C D E F G H I J K L M N O P Q R S T U V W X Y Z

Eric Bibb - Champagne Habits tab

First tab I've uploaded here; please be kind! I figured this out earlier today; it's not 
difficult, just somewhat awkward.
This is track 7 on his 2003 album, Natural Light.
There are only a few parts to it, all of which I've written out below - listen to the 
for the timing and number of repeats.

 |----------7-------------|
 |--------4---------------|
 |------7-----------------|
 |--------------6-7-6-4---|
 |----------------------6-|
 |--7---------------------|

 |----------7---------------|
 |--------0-----------------|
 |------9-------6-7-6-4-----|
 |----------------------5h6-|
 |--7-----------------------|
 |--------------------------|

 |------------9-|
 |----------7---|
 |--------9-----|
 |--7-8---------|
 |--------------|
 |--------------|

 |------------7-------------|
 |----------4---------------|
 |--------7-----------------|
 |----------------6-7-6-4---|
 |------------------------6-|
 |--6-7---------------------|

 "Mama don't worry 'bout me..."

 |------------7-------------7-|
 |----------5-------------7---|
 |--------4-------------4-----|
 |----------------------------|
 |--6-7-----------6-4---------|
 |----------------------------|

 Ends on:

 |--7--|
 |--7--|
 |--4--|
 |-----|
 |-----|
 |-----|
Tap to rate this tab
 
# A B C D E F G H I J K L M N O P Q R S T U V W X Y Z