Song name
# A B C D E F G H I J K L M N O P Q R S T U V W X Y Z

Eric Bibb - Forgiveness Is Gold tab

Tab was made from watching this video: http://www.youtube.com/watch?v=2stDxz5UFTU

E|--------------------------------------------------------|
B|--------5--8-----------3--------3--5--1-----------------|
G|--------------7-----5-----------------------2--5-----2--| x3
D|-----7-----------------------4--------------------5-----|
A|--------------------------------------------------------|
E|--5--------------3--------2--------------1--------------|

E|--------------------------------------------------|
B|-----------5-----------------------5--------------|
G|-----5--2--------5--2--0-----5--2--------5--2--0--|
D|--------------------------------------------------|
A|--------------------------------------------------|
E|--2-----------2-----------1-----------1-----------|

After playing the above about thre times adds a little piece to the second part:

E|--------------------------------------------------------------------------|
B|-----------5-----------------------5-----------------------5--------------|
G|-----5--2--------5--2--0-----5--2--------5--2--0-----5--2--------5--2--0--|
D|--------------------------------------------------------------------------|
A|--------------------------------------------------------------------------|
E|--2-----------2-----------1-----------1-----------2-----------1-----------|

Please feel free to comment and suggest corrections or improvements and don't forget to rate.
Tap to rate this tab
# A B C D E F G H I J K L M N O P Q R S T U V W X Y Z