Song name
# A B C D E F G H I J K L M N O P Q R S T U V W X Y Z

Eric Bibb - In My Fathers House tab

-------------------------------------------------------------------------------
                             IN MY FATHER'S HOUSE - Eric Bibb
-------------------------------------------------------------------------------
Tabbed by: Abe M.
E-mail: firepick11@gmail.com

Tuning: EADGBe


Main Riff. I'm 100% sure about this part.
e|-----------------------------------------------------------------------|
B|-----------------------------------------------------------------------|
G|---2-------2-------2-----0----2------2-------2-------2-----0----2------|
D|---2-------2-------2---2-------------2-------2-------2---2-------------|
A|---------------------------0-----3b--------------------------0-----3b--|
E|-------3b------3b------------------------3b------3b--------------------|


Fill on the Verse. I'm like 80% sure on this one.
e|-----------------------------2---2--------|
B|-----------------------------2---2--------|
G|---2-------2-------2---------2---2--------|
D|---2-------2-------2---0h4----------------|
A|-------------------------------------3b---|
E|-------3b------3b-------------------------|

That's all I've got. Good luck.

************************************

| /   slide up
| \   slide down
| h   hammer-on
| p   pull-off
| ~   vibrato
| +   harmonic
| x   Mute note
| b   Bend
| pb  Pre-bend
| br  Bend release
| pbr Pre-bend release
| brb Bend release bend

************************************
Tap to rate this tab
# A B C D E F G H I J K L M N O P Q R S T U V W X Y Z