Song name
# A B C D E F G H I J K L M N O P Q R S T U V W X Y Z

Eric Champion - Am I Lookin Good tab

"Am I Lookin' Good?"
by Eric Champion
(c) 1998 Essential Records
Toonman (bass4jesus@aol.com)

INTRO:                         (3x)
A-------6-6-6---6-------8-8-8-6-8-|
E-8-8-8-------8---6-6-6-----------|

(No Bass on 1st Verse)


CHORUS:                        (4x)
A-------6-6-6---6-------8-8-8-6-8-|
E-8-8-8-------8---6-6-6-----------|

VERSE:                         (4x)
A---------------------3-----------|
E-8-8-6-8-8\------------1---------|

(Repeat Chorus)

BRIDGE:                                                           (2x)
G--------------------------------------------------------------7-8-7-|
D-----------8-9-10---8---7---5----------------8-9-10---8---7---------|
A-3-3-1-3---------------------------3-3-1-3--------------------------|

(No Bass on 3rd Verse)
(Repeat Chorus 4x)
(Repeat Bridge 2x)
Tap to rate this tab
 
# A B C D E F G H I J K L M N O P Q R S T U V W X Y Z