Song name
# A B C D E F G H I J K L M N O P Q R S T U V W X Y Z

Eric Church - Love Your Love The Most tab

This isn't exactly right but pretty close so go at it

Guitar 1
--------------6---------------------6-5----------------6-----6-66p5-----------|
---4p6-4p3-------6p4----4p6-4p3------------4p6-4p3-------6p4--------6p4-------|
-3--------5p3---------3---------5p3------3---------5p3------------------5p2s3-|
------------------------------------------------------------------------------|
------------------------------------------------------------------------------|
------------------------------------------------------------------------------|
Guitar 2
-----------------------------------------------------------------------------|
-----------------------------------------------------------------------------|
-----------------------------------------------------------------------------|
--------------------3-------------5p3----------------------------------------|
-0p1-3p5-6--0p1-3p5----0p1-3p5-6------6p5------------------------------------|
------------------------------------------8p5p6------------------------------|
Tap to rate this tab
# A B C D E F G H I J K L M N O P Q R S T U V W X Y Z