Song name
# A B C D E F G H I J K L M N O P Q R S T U V W X Y Z

Eric Church - Love Your Love The Most tab

Capo 3rd Fret


INTRO
---------------------------------------------------------------------------|
---------------------------------------------------------------------------|
---------------------------------------------------------------------------|
---------0------------0------------0-2---2-0-------------------------------|
-----0h2---3------0h2---0------0h2-----------3-2-0-------------------------|
---3------------3------------3---------------------3-----------------------|


AFTER 1st Chorus
---------------------------------------------------------------------------|
---------------------------------------------------------------------------|
---------------------------------------------------------------------------|
---------0------------0----------------------------------------------------|
-----0h2---3------0h2---0--------------------------------------------------|
---3------------3----------------------------------------------------------|


END
---------------------------------------------------3-----------------------|
---------------------------------------------------3-----------------------|
---------------------------------------------------0-----------------------|
---------0------------0------------0-2---2-0-------0-----------------------|
-----0h2---3------0h2---0------0h2-----------3-2-0-2-----------------------|
---3------------3------------3---------------------3-----------------------|
Tap to rate this tab
# A B C D E F G H I J K L M N O P Q R S T U V W X Y Z