Song name
# A B C D E F G H I J K L M N O P Q R S T U V W X Y Z

Eric Church - Homeboy chords

Highlighted       Show chord diagrams
Eric Church----Homeboy Chords
------------------------------------------------------

This song is played a half-step down and drop d tuning.

-------------------------------------------------------
This is how Eric plays it live
http://www.youtube.com/watch?v=lNaajAeD6t0

This is my first tab so please rate and let me know how I did…
-------------------------------------------------------
Chords:

   E7              Cadd9            D  
---x----          ---x----          ----x----
---2----          ---3----          ----x----
---x----          ---0h2--          ----0----
---0----          ---0----          ----0h2--
---3----          ---3----          ----3----
---3----          ---3----          ----2----
 
Riff 1:
---0h3---0h3-
---0h2---0h2-
---0-----0---
-------------
-------------
-------------

Intro:
--0------------0---------------------------0h3---0h3--
--0------------0-------------2/3---3--2----0h2---0h2--
--0---0---4----0----0---4----0-----0--0----0-----0---- X2
------2---2---------2---2----0-----0--0---------------
------3---3---------3---3----3-----3--0---------------
------2---2---------2---2----------3--3---------------
Verse 1:

D
You were too bad for a little square town
          Cadd9                E7     
With your hip-hop hat and your pants on the ground
          D                 
Heard you cussed out momma, pushed daddy around
           Cadd9           E7       Riff 1
Before you tore off in his car 
D
Here you are runnin these dirty old streets
   Cadd9                  E7 
Tattoo on your neck, fake gold on your teeth
         D  
Got the 'hood here snow but you can't fool me
   Cadd9             E7       Riff 1
We both know who you are

Chorus:

D
Homeboy, you're gonna wish one day,
         Cadd9                   E7  
You were sittin on the gate of a truck by the lake
          D                                       Cadd9       E7
With your high school flame on one side, ice cold beer on the other
D                                             Cadd9
Ain't no shame in a blue collar forty, little house, little kids, little
E7
small town story
       D                                        Cadd9          E7 
If you don't ever do anything else for me, just do this for me brother

Come on home, boy.



Repeat Intro




Verse 2:
      D  
I was haulin' this hay, on Uncle Joe's farm
Cadd9                  E7
Thought of us barefoot kids in the yard,
        D
Man, it seems we were just catchin' snakes in the barn
           Cadd9             E7      Riff 1 
Now you're caught up in this mess
        D                                        
I could use a little help unloadin these bales
        Cadd9                       E7
I could keep you pretty busy with a hammer and a nail
        D
Ain't a glamorous life but it'll keep you outta jail
    Cadd9           E7        Riff 1 
Not worry us all to death.

Chorus:
Chorus:

D
Homeboy, you're gonna wish one day,
         Cadd9                   E7  
You were sittin on the gate of a truck by the lake
          D                                       Cadd9       E7
With your high school flame on one side, ice cold beer on the other
D                                             Cadd9
Ain't no shame in a blue collar forty, little house, little kids, little
E7
small town story
       D                                        Cadd9          E7 
If you don't ever do anything else for me, just do this for me brother
        D             Cadd9     E7
Come on home, booooooooooooyyyyyyyyyyyy.

        D             Cadd9     E7          
Come on home, booooooooooooyyyyyyyyyyyyy…
        D     
Ooh Ooh Ooooh


Verse 3:

    D
You can't hold back, the hands of time
Cadd9                        E7
Mama's goin' grey, and so is daddy's mind
             D                                    Cadd9    E7
I wish you'd come on back, and make it alright

Before they're called, home boy.

Intro X2
Tap to rate this tab
 
# A B C D E F G H I J K L M N O P Q R S T U V W X Y Z