Song name
# A B C D E F G H I J K L M N O P Q R S T U V W X Y Z

Eric Church - Homeboy tab

Drop Db tuning

Intro:

eb|-------------------------------------------------------------------------|
Bb|-------------10/7---------10/7-------------3--------3--------------------|
Gb|----------------7------------7----------------0---------0----------------|
Db|-------------------------------------------------------------------------|
Ab|------0----------------0-------------2p3----------2----------------------|
Db|----0----------------0-----------------------------------------3-0-3b-0--|

The rest of the song goes as follows:


eb|-------2-----------3-------3-------------------------------------------------------|
Bb|-------3-----------3-------3-------------------------------------------------------|
Gb|-------2-----------0-------0-------------------------------------------------------|
Db|-------0-----------2-------0-------------------------------------------------------|
Ab|-------0-----------3-------2-------------------------------------------------------|
Db|-------0-----------------------------3-0--3b--0------------------------------------|

The solo is pretty straight forward.  Although, I really enjoy just getting on the D 
ionic scale and letn it rip.  actually sounds pretty good with a wah pedal added if your a 
wah kinda guy.  Have fun and I hope this helps you.
Tap to rate this tab
 
# A B C D E F G H I J K L M N O P Q R S T U V W X Y Z