Song name
# A B C D E F G H I J K L M N O P Q R S T U V W X Y Z

Eric Church - Lotta Boot Left To Fill tab

Artist: Eric Church
Song: Lotta Boot Left To Fill
Album: Carolina

Tuning: Drop C

Intro:
D----------------------------------------|
A----------------------------------------|
F----------------------------------------|
C--3/5-0---------------------------------|<--- 2X then
G----------------5--5--5-8-5--5--5-------|
C--------3/5-0--0--0--0------0--0--------|

D---------------------------|
A---------------------------|
F---------------------------|
C--3/5--0-------------------|
G---------------------------|
C---------3/5--0------------|
Tap to rate this tab
# A B C D E F G H I J K L M N O P Q R S T U V W X Y Z