Song name
# A B C D E F G H I J K L M N O P Q R S T U V W X Y Z

Eric Church - Homeboy tab

This Song is in Drop D

     Intro:
e|-------------------------------------------------|
B|-------------------------------3-----------------|
G|-----1/2--------1/2--------------0---------------|
D|----------4----------4---------------------------|
A|--0-----------0---------0/2/3-------2------------|
D|-0-----------0------------------------0-2-0-2----|

And then from there it is just these Chords:

    D         C         G         Cadd9
e|----2----|----0----|----3----|----3----|
B|----3----|----1----|----3----|----3----|
G|----2----|----0----|----4----|----0----|
D|----0----|----2----|----5----|----2----|
A|----X----|----3----|----5----|----3----|
D|----X----|----X----|----X----|----x----|

The verses are D for 4 counts and then the C and G are two counts. Use Cadd9 in place of 
C when doing the chorus. And the same count as the verses for the chorus.

Have fun
Tap to rate this tab
 
# A B C D E F G H I J K L M N O P Q R S T U V W X Y Z