Song name
# A B C D E F G H I J K L M N O P Q R S T U V W X Y Z

Eric Church - Smoke A Little Smoke Acoustic tab

-------------------------------------------------------------------------------
                            Smoke a Little Smoke (acoustic) - Eric Church
-------------------------------------------------------------------------------
Tabbed by: wgamey
Tuning: Standard
Capo: 6

E:   022100
B:   024442
A2:  022000
C#M: 046654
A:   022200
E7:  022130

Riff:
e|------------|
B|------------|
G|------------|
D|------------|
A|---------0--|
E|---0--3-----|

Intro:
e|--------------------------------|
B|--------------------------------|
G|------------1-1-1-1-1-1-1-------|   X 4
D|------------0-2-2-0-2-0-2-------|
A|---------0--0-2-2-0-2-0-2-------|
E|---0--3-----0-0-0-0-0-0-0-------|



                  E 
Turn the quiet up, turn the noise down  

Let this ol' world just spin around  

I wanna feel it swing, wanna feel it sway 
             B               A2    
And put some feel good in my soul   
A2                    B                     E - Riff - E
Drink a little drink, smoke a little smoke  

N.C                     E 
Want a little more right and a little less left  

Little more right now, a little less what's next  

Act like tomorrow's ten years away  
              B                         A2    
And just kick back and let the feelin' flow 
A2                    B 
Drink a little drink, smoke a little smoke  


                 Yeah
e|----------------------------------------------|
B|----------------------------------------------|
G|--1--1--1--1--1------------1--1--1--1--1------|
D|--2--0--2--0--2------------2--0--2--0--2------|
A|--2--0--2--0--2------------2--0--2--0--2------|
E|--0--0--0--0--0------------0--0--0--0--0------|




e|--------------------|
B|--5--4--2----0--2---|
G|--5--4--2----0--2---|
D|--5--4--2----0--2---|
A|--------------------|
E|--------------------|


C#m                  A 
I set my sails for a new direction                    
                        E 
But the wind got in my way  
C#m                                       
I changed my course 
      A
but my definition of change                         
               B 
Just ain't the same    
                           E7 E 
I'm gonna sit around here, 
                     E7 E 
Stay away from there 
                       E7 E
I'm gonna make pretend 
                    E7 E
I just don't care 
                    E7 E
And I could get up
                     E7 E  Riff (Slowly)
Go get her back        
   B                       A2     
Or maybe I'll just let her go    

A2                    B                   E    
Drink a little drink, smoke a little smoke
E
Yeah 


                  Yeah
e|--------------------|
B|--5--4--2----0--2---|
G|--5--4--2----0--2---|
D|--5--4--2----0--2---|
A|--------------------|
E|--------------------|

               Go get her back
e|--------------------|
B|--5--4--2----0--2---|
G|--5--4--2----0--2---|
D|--5--4--2----0--2---|
A|--------------------|
E|--------------------|
               oohh
e|--------------------|
B|--5--4--2----0--2---|
G|--5--4--2----0--2---|
D|--5--4--2----0--2---|
A|--------------------|
E|--------------------|

e|--------------------|
B|--5--4--2----0--2---|
G|--5--4--2----0--2---|
D|--5--4--2----0--2---|
A|--------------------|
E|--------------------|



A  (Hold)                                 E
Drink a little drink, smoke a little smoke 
A  (Hold)                                 E 
Drink a little drink, smoke a little smoke 

E 
Kick back, give the blues spin  

Break out the wine, forget again 
A 
Dig down deep, find my stash  

Light it up, take me back  
E 
Kick back, give the blues spin  

Break out the wine, just forget again 
A 
Dig down deep, find my stash  

Light it up, memory crash 
E 
Oh no, I don't know, baby, might take all night                    
              B                          A2 
Better maybe break out that old rock and roll  
A2                    B                          E   Riff  E
Drink a little drink, smoke a little smoke 
     A2                      B                         E  Riff   E
Gonna drink a little drink, smoke a little smoke
Tap to rate this tab
# A B C D E F G H I J K L M N O P Q R S T U V W X Y Z